  0
SECTION
  2
HEADER
  0
ENDSEC
  0
SECTION
  2
TABLES
  0
TABLE
  2
LTYPE
 70
1
  0
LTYPE
  2
CONTINUOUS
 70
0
  3
Solid line
 72
65
 73
0
 40
0.0
  0
ENDTAB
  0
TABLE
  2
LAYER
 70
9
  0
LAYER
  2
Title
 70
0
 62
1
  6
CONTINUOUS
  0
LAYER
  2
BOPEN_3D
 70
0
 62
1
  6
CONTINUOUS
  0
LAYER
  2
BOPEN_End
 70
0
 62
1
  6
CONTINUOUS
  0
LAYER
  2
BOPEN_End
 70
0
 62
1
  6
CONTINUOUS
  0
LAYER
  2
BOPEN_Front
 70
0
 62
1
  6
CONTINUOUS
  0
LAYER
  2
BOPEN_3D
 70
0
 62
1
  6
CONTINUOUS
  0
LAYER
  2
BOPEN_End
 70
0
 62
1
  6
CONTINUOUS
  0
LAYER
  2
BOPEN_End
 70
0
 62
1
  6
CONTINUOUS
  0
LAYER
  2
BOPEN_Front
 70
0
 62
1
  6
CONTINUOUS
  0
ENDTAB
  0
ENDSEC
  0
SECTION
  2
BLOCKS
  0
ENDSEC
  0
SECTION
  2
ENTITIES
  0
LINE
  8
BOPEN_3D
 10
19.763696
 20
0.017297
 11
12.093075
 21
-1.295295
 39
0.006944
 62
1
  0
LINE
  8
BOPEN_3D
 10
18.913027
 20
-0.204876
 11
13.929265
 21
-1.067958
 39
0.006944
 62
1
  0
LINE
  8
BOPEN_3D
 10
13.929265
 20
-1.067958
 11
18.913027
 21
-0.204876
 39
0.006944
 62
1
  0
LINE
  8
BOPEN_3D
 10
18.913031
 20
-0.204876
 11
18.915333
 21
-0.564388
 39
0.006944
 62
1
  0
LINE
  8
BOPEN_3D
 10
20.040136
 20
-0.009684
 11
18.913027
 21
-0.204876
 39
0.006944
 62
1
  0
LINE
  8
BOPEN_3D
 10
20.040137
 20
-0.009684
 11
18.913031
 21
-0.204876
 39
0.006944
 62
1
  0
LINE
  8
BOPEN_3D
 10
18.913027
 20
-0.204876
 11
20.040136
 21
-0.009684
 39
0.006944
 62
1
  0
LINE
  8
BOPEN_3D
 10
12.085034
 20
-1.296671
 11
12.379795
 21
-1.336293
 39
0.006944
 62
1
  0
LINE
  8
BOPEN_3D
 10
12.379670
 20
-1.333806
 11
12.093075
 21
-1.295295
 39
0.006944
 62
1
  0
LINE
  8
BOPEN_3D
 10
12.093075
 20
-1.295295
 11
12.085034
 21
-1.296671
 39
0.006944
 62
1
  0
LINE
  8
BOPEN_3D
 10
12.379795
 20
-1.336293
 11
12.085034
 21
-1.296671
 39
0.006944
 62
1
  0
LINE
  8
BOPEN_3D
 10
12.093075
 20
-1.295295
 11
12.379670
 21
-1.333806
 39
0.006944
 62
1
  0
LINE
  8
BOPEN_3D
 10
12.379670
 20
-1.333806
 11
12.093075
 21
-1.295295
 39
0.006944
 62
1
  0
LINE
  8
BOPEN_3D
 10
12.387826
 20
-1.334902
 11
12.379795
 21
-1.336293
 39
0.006944
 62
1
  0
LINE
  8
BOPEN_3D
 10
12.379796
 20
-1.336293
 11
12.387826
 21
-1.334903
 39
0.006944
 62
1
  0
LINE
  8
BOPEN_3D
 10
12.379795
 20
-1.336293
 11
12.379796
 21
-1.336293
 39
0.006944
 62
1
  0
LINE
  8
BOPEN_3D
 10
12.380666
 20
-1.333940
 11
12.379670
 21
-1.333806
 39
0.006944
 62
1
  0
LINE
  8
BOPEN_3D
 10
12.387826
 20
-1.334903
 11
12.380666
 21
-1.333940
 39
0.006944
 62
1
  0
LINE
  8
BOPEN_3D
 10
12.387826
 20
-1.334902
 11
12.379795
 21
-1.336293
 39
0.006944
 62
1
  0
LINE
  8
BOPEN_3D
 10
12.380666
 20
-1.333941
 11
12.387826
 21
-1.334903
 39
0.006944
 62
1
  0
LINE
  8
BOPEN_3D
 10
12.379670
 20
-1.333806
 11
12.380666
 21
-1.333941
 39
0.006944
 62
1
  0
LINE
  8
BOPEN_3D
 10
12.380666
 20
-1.333940
 11
12.379670
 21
-1.333806
 39
0.006944
 62
1
  0
LINE
  8
BOPEN_3D
 10
12.387826
 20
-1.334903
 11
12.380666
 21
-1.333940
 39
0.006944
 62
1
  0
LINE
  8
BOPEN_3D
 10
13.929265
 20
-1.067958
 11
12.387826
 21
-1.334903
 39
0.006944
 62
1
  0
LINE
  8
BOPEN_3D
 10
13.929267
 20
-1.067958
 11
12.387826
 21
-1.334902
 39
0.006944
 62
1
  0
LINE
  8
BOPEN_3D
 10
12.387826
 20
-1.334903
 11
13.929265
 21
-1.067958
 39
0.006944
 62
1
  0
LINE
  8
BOPEN_3D
 10
12.379795
 20
-1.336293
 11
12.400994
 21
-1.755555
 39
0.006944
 62
1
  0
LINE
  8
BOPEN_3D
 10
12.379795
 20
-1.336293
 11
12.400995
 21
-1.755555
 39
0.006944
 62
1
  0
LINE
  8
BOPEN_3D
 10
12.400993
 20
-1.755555
 11
12.379795
 21
-1.336293
 39
0.006944
 62
1
  0
LINE
  8
BOPEN_3D
 10
13.370003
 20
-4.829844
 11
13.357551
 21
-4.796652
 39
0.006944
 62
1
  0
LINE
  8
BOPEN_3D
 10
13.357551
 20
-4.796652
 11
13.330698
 21
-4.788484
 39
0.006944
 62
1
  0
LINE
  8
BOPEN_3D
 10
13.330698
 20
-4.788484
 11
13.305159
 21
-4.810172
 39
0.006944
 62
1
  0
LINE
  8
BOPEN_3D
 10
19.632021
 20
-2.308347
 11
12.387826
 21
-1.334903
 39
0.006944
 62
1
  0
LINE
  8
BOPEN_3D
 10
12.379795
 20
-1.336293
 11
19.632026
 21
-2.311134
 39
0.006944
 62
1
  0
LINE
  8
BOPEN_3D
 10
19.632026
 20
-2.311134
 11
12.379795
 21
-1.336293
 39
0.006944
 62
1
  0
LINE
  8
BOPEN_3D
 10
19.632021
 20
-2.308347
 11
12.387826
 21
-1.334903
 39
0.006944
 62
1
  0
LINE
  8
BOPEN_3D
 10
12.387826
 20
-1.334903
 11
19.633008
 21
-2.308479
 39
0.006944
 62
1
  0
LINE
  8
BOPEN_3D
 10
12.400994
 20
-1.755555
 11
19.632777
 21
-2.781070
 39
0.006944
 62
1
  0
LINE
  8
BOPEN_3D
 10
21.084305
 20
-1.970835
 11
13.929267
 21
-1.067958
 39
0.006944
 62
1
  0
LINE
  8
BOPEN_3D
 10
19.748636
 20
-0.654530
 11
19.749554
 21
-1.802406
 39
0.006944
 62
1
  0
LINE
  8
BOPEN_3D
 10
19.633008
 20
-2.308479
 11
19.632021
 21
-2.308347
 39
0.006944
 62
1
  0
LINE
  8
BOPEN_3D
 10
19.639585
 20
-2.309363
 11
19.633008
 21
-2.308479
 39
0.006944
 62
1
  0
LINE
  8
BOPEN_3D
 10
19.632026
 20
-2.311134
 11
19.639585
 21
-2.309363
 39
0.006944
 62
1
  0
LINE
  8
BOPEN_3D
 10
19.632026
 20
-2.311134
 11
19.632026
 21
-2.311134
 39
0.006944
 62
1
  0
LINE
  8
BOPEN_3D
 10
19.639583
 20
-2.309363
 11
19.632026
 21
-2.311134
 39
0.006944
 62
1
  0
LINE
  8
BOPEN_3D
 10
19.639585
 20
-2.309363
 11
19.639583
 21
-2.309363
 39
0.006944
 62
1
  0
LINE
  8
BOPEN_3D
 10
19.633008
 20
-2.308479
 11
19.632021
 21
-2.308347
 39
0.006944
 62
1
  0
LINE
  8
BOPEN_3D
 10
19.639585
 20
-2.309363
 11
19.633008
 21
-2.308479
 39
0.006944
 62
1
  0
LINE
  8
BOPEN_3D
 10
19.633008
 20
-2.308479
 11
19.639585
 21
-2.309363
 39
0.006944
 62
1
  0
LINE
  8
BOPEN_3D
 10
20.011771
 20
-2.359374
 11
19.639585
 21
-2.309363
 39
0.006944
 62
1
  0
LINE
  8
BOPEN_3D
 10
19.639583
 20
-2.309363
 11
19.632026
 21
-2.311134
 39
0.006944
 62
1
  0
LINE
  8
BOPEN_3D
 10
19.639585
 20
-2.309363
 11
19.639583
 21
-2.309363
 39
0.006944
 62
1
  0
LINE
  8
BOPEN_3D
 10
19.632026
 20
-2.311134
 11
20.011770
 21
-2.362180
 39
0.006944
 62
1
  0
LINE
  8
BOPEN_3D
 10
20.011770
 20
-2.362180
 11
19.632026
 21
-2.311134
 39
0.006944
 62
1
  0
LINE
  8
BOPEN_3D
 10
20.011771
 20
-2.359374
 11
19.639585
 21
-2.309363
 39
0.006944
 62
1
  0
LINE
  8
BOPEN_3D
 10
19.639585
 20
-2.309363
 11
20.011774
 21
-2.359375
 39
0.006944
 62
1
  0
LINE
  8
BOPEN_3D
 10
19.632026
 20
-2.311134
 11
19.632777
 21
-2.781070
 39
0.006944
 62
1
  0
LINE
  8
BOPEN_3D
 10
19.632777
 20
-2.781070
 11
19.632026
 21
-2.311134
 39
0.006944
 62
1
  0
LINE
  8
BOPEN_3D
 10
19.632026
 20
-2.311134
 11
19.632779
 21
-2.781070
 39
0.006944
 62
1
  0
LINE
  8
BOPEN_3D
 10
19.632779
 20
-2.781070
 11
19.632779
 21
-2.781070
 39
0.006944
 62
1
  0
LINE
  8
BOPEN_3D
 10
19.632777
 20
-2.781070
 11
19.632779
 21
-2.781070
 39
0.006944
 62
1
  0
LINE
  8
BOPEN_3D
 10
19.374339
 20
-3.306502
 11
19.382232
 21
-3.273180
 39
0.006944
 62
1
  0
LINE
  8
BOPEN_3D
 10
19.382232
 20
-3.273180
 11
19.374128
 21
-3.243985
 39
0.006944
 62
1
  0
LINE
  8
BOPEN_3D
 10
19.374128
 20
-3.243985
 11
19.354753
 21
-3.236013
 39
0.006944
 62
1
  0
LINE
  8
BOPEN_3D
 10
19.354753
 20
-3.236013
 11
19.335449
 21
-3.253967
 39
0.006944
 62
1
  0
LINE
  8
BOPEN_3D
 10
19.335449
 20
-3.253967
 11
19.327543
 21
-3.287339
 39
0.006944
 62
1
  0
LINE
  8
BOPEN_3D
 10
19.327543
 20
-3.287339
 11
19.335677
 21
-3.316545
 39
0.006944
 62
1
  0
LINE
  8
BOPEN_3D
 10
19.335677
 20
-3.316545
 11
19.355063
 21
-3.324468
 39
0.006944
 62
1
  0
LINE
  8
BOPEN_3D
 10
19.355063
 20
-3.324468
 11
19.374339
 21
-3.306502
 39
0.006944
 62
1
  0
LINE
  8
BOPEN_3D
 10
19.376242
 20
-3.869910
 11
19.384105
 21
-3.836715
 39
0.006944
 62
1
  0
LINE
  8
BOPEN_3D
 10
19.384105
 20
-3.836715
 11
19.376032
 21
-3.807876
 39
0.006944
 62
1
  0
LINE
  8
BOPEN_3D
 10
19.376032
 20
-3.807876
 11
19.356733
 21
-3.800279
 39
0.006944
 62
1
  0
LINE
  8
BOPEN_3D
 10
19.356733
 20
-3.800279
 11
19.337504
 21
-3.818410
 39
0.006944
 62
1
  0
LINE
  8
BOPEN_3D
 10
19.337504
 20
-3.818410
 11
19.329630
 21
-3.851655
 39
0.006944
 62
1
  0
LINE
  8
BOPEN_3D
 10
19.329630
 20
-3.851655
 11
19.337730
 21
-3.880506
 39
0.006944
 62
1
  0
LINE
  8
BOPEN_3D
 10
19.337730
 20
-3.880506
 11
19.357041
 21
-3.888053
 39
0.006944
 62
1
  0
LINE
  8
BOPEN_3D
 10
19.357041
 20
-3.888053
 11
19.376242
 21
-3.869910
 39
0.006944
 62
1
  0
LINE
  8
BOPEN_3D
 10
19.378130
 20
-4.428992
 11
19.385963
 21
-4.395921
 39
0.006944
 62
1
  0
LINE
  8
BOPEN_3D
 10
19.385963
 20
-4.395921
 11
19.377922
 21
-4.367431
 39
0.006944
 62
1
  0
LINE
  8
BOPEN_3D
 10
19.377922
 20
-4.367431
 11
19.358698
 21
-4.360206
 39
0.006944
 62
1
  0
LINE
  8
BOPEN_3D
 10
19.358698
 20
-4.360206
 11
19.339544
 21
-4.378511
 39
0.006944
 62
1
  0
LINE
  8
BOPEN_3D
 10
19.339544
 20
-4.378511
 11
19.331703
 21
-4.411630
 39
0.006944
 62
1
  0
LINE
  8
BOPEN_3D
 10
19.331703
 20
-4.411630
 11
19.339769
 21
-4.440130
 39
0.006944
 62
1
  0
LINE
  8
BOPEN_3D
 10
19.339769
 20
-4.440130
 11
19.359004
 21
-4.447307
 39
0.006944
 62
1
  0
LINE
  8
BOPEN_3D
 10
19.359004
 20
-4.447307
 11
19.378130
 21
-4.428992
 39
0.006944
 62
1
  0
LINE
  8
BOPEN_3D
 10
13.360791
 20
-4.868627
 11
13.370003
 21
-4.829844
 39
0.006944
 62
1
  0
LINE
  8
BOPEN_3D
 10
13.305159
 20
-4.810172
 11
13.295932
 21
-4.849022
 39
0.006944
 62
1
  0
LINE
  8
BOPEN_3D
 10
13.295932
 20
-4.849022
 11
13.308430
 21
-4.882228
 39
0.006944
 62
1
  0
LINE
  8
BOPEN_3D
 10
13.308430
 20
-4.882228
 11
13.335299
 21
-4.890329
 39
0.006944
 62
1
  0
LINE
  8
BOPEN_3D
 10
13.335299
 20
-4.890329
 11
13.360791
 21
-4.868627
 39
0.006944
 62
1
  0
LINE
  8
BOPEN_3D
 10
13.389968
 20
-5.516829
 11
13.399138
 21
-5.478216
 39
0.006944
 62
1
  0
LINE
  8
BOPEN_3D
 10
13.399138
 20
-5.478216
 11
13.386757
 21
-5.445497
 39
0.006944
 62
1
  0
LINE
  8
BOPEN_3D
 10
13.386757
 20
-5.445497
 11
13.360043
 21
-5.437828
 39
0.006944
 62
1
  0
LINE
  8
BOPEN_3D
 10
13.360043
 20
-5.437828
 11
13.334637
 21
-5.459749
 39
0.006944
 62
1
  0
LINE
  8
BOPEN_3D
 10
13.334637
 20
-5.459749
 11
13.325450
 21
-5.498428
 39
0.006944
 62
1
  0
LINE
  8
BOPEN_3D
 10
13.325450
 20
-5.498428
 11
13.337876
 21
-5.531159
 39
0.006944
 62
1
  0
LINE
  8
BOPEN_3D
 10
13.364607
 20
-5.538763
 11
13.389968
 21
-5.516829
 39
0.006944
 62
1
  0
LINE
  8
BOPEN_3D
 10
13.337876
 20
-5.531159
 11
13.364607
 21
-5.538763
 39
0.006944
 62
1
  0
LINE
  8
BOPEN_3D
 10
13.418884
 20
-6.159243
 11
13.428014
 21
-6.120801
 39
0.006944
 62
1
  0
LINE
  8
BOPEN_3D
 10
13.428014
 20
-6.120801
 11
13.415702
 21
-6.088548
 39
0.006944
 62
1
  0
LINE
  8
BOPEN_3D
 10
13.415702
 20
-6.088548
 11
13.389128
 21
-6.081369
 39
0.006944
 62
1
  0
LINE
  8
BOPEN_3D
 10
13.389128
 20
-6.081369
 11
13.363849
 21
-6.103516
 39
0.006944
 62
1
  0
LINE
  8
BOPEN_3D
 10
13.363849
 20
-6.103516
 11
13.354703
 21
-6.142024
 39
0.006944
 62
1
  0
LINE
  8
BOPEN_3D
 10
13.354703
 20
-6.142024
 11
13.367060
 21
-6.174291
 39
0.006944
 62
1
  0
LINE
  8
BOPEN_3D
 10
13.367060
 20
-6.174291
 11
13.393649
 21
-6.181402
 39
0.006944
 62
1
  0
LINE
  8
BOPEN_3D
 10
13.393649
 20
-6.181402
 11
13.418884
 21
-6.159243
 39
0.006944
 62
1
  0
LINE
  8
BOPEN_3D
 10
13.447543
 20
-6.795949
 11
13.456632
 21
-6.757674
 39
0.006944
 62
1
  0
LINE
  8
BOPEN_3D
 10
13.456632
 20
-6.757674
 11
13.444389
 21
-6.725880
 39
0.006944
 62
1
  0
LINE
  8
BOPEN_3D
 10
13.444389
 20
-6.725880
 11
13.417956
 21
-6.719183
 39
0.006944
 62
1
  0
LINE
  8
BOPEN_3D
 10
13.417956
 20
-6.719183
 11
13.392801
 21
-6.741552
 39
0.006944
 62
1
  0
LINE
  8
BOPEN_3D
 10
13.392801
 20
-6.741552
 11
13.383698
 21
-6.779892
 39
0.006944
 62
1
  0
LINE
  8
BOPEN_3D
 10
13.383698
 20
-6.779892
 11
13.395986
 21
-6.811698
 39
0.006944
 62
1
  0
LINE
  8
BOPEN_3D
 10
13.395986
 20
-6.811698
 11
13.422435
 21
-6.818329
 39
0.006944
 62
1
  0
LINE
  8
BOPEN_3D
 10
13.422435
 20
-6.818329
 11
13.447543
 21
-6.795949
 39
0.006944
 62
1
  0
LINE
  8
BOPEN_3D
 10
13.475949
 20
-7.427019
 11
13.484998
 21
-7.388911
 39
0.006944
 62
1
  0
LINE
  8
BOPEN_3D
 10
13.484998
 20
-7.388911
 11
13.472823
 21
-7.357570
 39
0.006944
 62
1
  0
LINE
  8
BOPEN_3D
 10
13.472823
 20
-7.357570
 11
13.446525
 21
-7.351347
 39
0.006944
 62
1
  0
LINE
  8
BOPEN_3D
 10
13.446525
 20
-7.351347
 11
13.421499
 21
-7.373933
 39
0.006944
 62
1
  0
LINE
  8
BOPEN_3D
 10
13.421499
 20
-7.373933
 11
13.412435
 21
-7.412106
 39
0.006944
 62
1
  0
LINE
  8
BOPEN_3D
 10
13.412435
 20
-7.412106
 11
13.424653
 21
-7.443457
 39
0.006944
 62
1
  0
LINE
  8
BOPEN_3D
 10
13.424653
 20
-7.443457
 11
13.450968
 21
-7.449616
 39
0.006944
 62
1
  0
LINE
  8
BOPEN_3D
 10
13.450968
 20
-7.449616
 11
13.475949
 21
-7.427019
 39
0.006944
 62
1
  0
LINE
  8
BOPEN_3D
 10
13.504105
 20
-8.052531
 11
13.513113
 21
-8.014587
 39
0.006944
 62
1
  0
LINE
  8
BOPEN_3D
 10
13.513113
 20
-8.014587
 11
13.501006
 21
-7.983691
 39
0.006944
 62
1
  0
LINE
  8
BOPEN_3D
 10
13.501006
 20
-7.983691
 11
13.474843
 21
-7.977934
 39
0.006944
 62
1
  0
LINE
  8
BOPEN_3D
 10
13.474843
 20
-7.977934
 11
13.449941
 21
-8.000733
 39
0.006944
 62
1
  0
LINE
  8
BOPEN_3D
 10
13.449941
 20
-8.000733
 11
13.440917
 21
-8.038740
 39
0.006944
 62
1
  0
LINE
  8
BOPEN_3D
 10
13.440917
 20
-8.038740
 11
13.453068
 21
-8.069646
 39
0.006944
 62
1
  0
LINE
  8
BOPEN_3D
 10
13.453068
 20
-8.069646
 11
13.479246
 21
-8.075339
 39
0.006944
 62
1
  0
LINE
  8
BOPEN_3D
 10
13.479246
 20
-8.075339
 11
13.504105
 21
-8.052531
 39
0.006944
 62
1
  0
LINE
  8
BOPEN_3D
 10
13.540982
 20
-8.634776
 11
13.528941
 21
-8.604320
 39
0.006944
 62
1
  0
LINE
  8
BOPEN_3D
 10
13.528941
 20
-8.604320
 11
13.502915
 21
-8.599020
 39
0.006944
 62
1
  0
LINE
  8
BOPEN_3D
 10
13.502915
 20
-8.599020
 11
13.478134
 21
-8.622026
 39
0.006944
 62
1
  0
LINE
  8
BOPEN_3D
 10
19.380004
 20
-4.983794
 11
19.387806
 21
-4.950848
 39
0.006944
 62
1
  0
LINE
  8
BOPEN_3D
 10
19.387806
 20
-4.950848
 11
19.379797
 21
-4.922705
 39
0.006944
 62
1
  0
LINE
  8
BOPEN_3D
 10
19.379797
 20
-4.922705
 11
19.360648
 21
-4.915844
 39
0.006944
 62
1
  0
LINE
  8
BOPEN_3D
 10
19.360648
 20
-4.915844
 11
19.341568
 21
-4.934319
 39
0.006944
 62
1
  0
LINE
  8
BOPEN_3D
 10
19.341568
 20
-4.934319
 11
19.333754
 21
-4.967314
 39
0.006944
 62
1
  0
LINE
  8
BOPEN_3D
 10
19.333754
 20
-4.967314
 11
19.341791
 21
-4.995466
 39
0.006944
 62
1
  0
LINE
  8
BOPEN_3D
 10
19.341791
 20
-4.995466
 11
19.360952
 21
-5.002279
 39
0.006944
 62
1
  0
LINE
  8
BOPEN_3D
 10
19.360952
 20
-5.002279
 11
19.380004
 21
-4.983794
 39
0.006944
 62
1
  0
LINE
  8
BOPEN_3D
 10
19.381863
 20
-5.534368
 11
19.389636
 21
-5.501545
 39
0.006944
 62
1
  0
LINE
  8
BOPEN_3D
 10
19.389636
 20
-5.501545
 11
19.381658
 21
-5.473743
 39
0.006944
 62
1
  0
LINE
  8
BOPEN_3D
 10
19.381658
 20
-5.473743
 11
19.362583
 21
-5.467243
 39
0.006944
 62
1
  0
LINE
  8
BOPEN_3D
 10
19.362583
 20
-5.467243
 11
19.343577
 21
-5.485883
 39
0.006944
 62
1
  0
LINE
  8
BOPEN_3D
 10
19.343577
 20
-5.485883
 11
19.335793
 21
-5.518754
 39
0.006944
 62
1
  0
LINE
  8
BOPEN_3D
 10
19.335793
 20
-5.518754
 11
19.343798
 21
-5.546565
 39
0.006944
 62
1
  0
LINE
  8
BOPEN_3D
 10
19.343798
 20
-5.546565
 11
19.362884
 21
-5.553019
 39
0.006944
 62
1
  0
LINE
  8
BOPEN_3D
 10
19.362884
 20
-5.553019
 11
19.381863
 21
-5.534368
 39
0.006944
 62
1
  0
LINE
  8
BOPEN_3D
 10
19.383708
 20
-6.080759
 11
19.391452
 21
-6.048058
 39
0.006944
 62
1
  0
LINE
  8
BOPEN_3D
 10
19.391452
 20
-6.048058
 11
19.383505
 21
-6.020595
 39
0.006944
 62
1
  0
LINE
  8
BOPEN_3D
 10
19.383505
 20
-6.020595
 11
19.364504
 21
-6.014448
 39
0.006944
 62
1
  0
LINE
  8
BOPEN_3D
 10
19.364504
 20
-6.014448
 11
19.345571
 21
-6.033254
 39
0.006944
 62
1
  0
LINE
  8
BOPEN_3D
 10
19.345571
 20
-6.033254
 11
19.337819
 21
-6.066002
 39
0.006944
 62
1
  0
LINE
  8
BOPEN_3D
 10
19.337819
 20
-6.066002
 11
19.345790
 21
-6.093475
 39
0.006944
 62
1
  0
LINE
  8
BOPEN_3D
 10
19.345790
 20
-6.093475
 11
19.364803
 21
-6.099573
 39
0.006944
 62
1
  0
LINE
  8
BOPEN_3D
 10
19.364803
 20
-6.099573
 11
19.383708
 21
-6.080759
 39
0.006944
 62
1
  0
LINE
  8
BOPEN_3D
 10
19.385539
 20
-6.623017
 11
19.393254
 21
-6.590439
 39
0.006944
 62
1
  0
LINE
  8
BOPEN_3D
 10
19.393254
 20
-6.590439
 11
19.385338
 21
-6.563306
 39
0.006944
 62
1
  0
LINE
  8
BOPEN_3D
 10
19.385338
 20
-6.563306
 11
19.366410
 21
-6.557510
 39
0.006944
 62
1
  0
LINE
  8
BOPEN_3D
 10
19.366410
 20
-6.557510
 11
19.347549
 21
-6.576477
 39
0.006944
 62
1
  0
LINE
  8
BOPEN_3D
 10
19.347549
 20
-6.576477
 11
19.339824
 21
-6.609102
 39
0.006944
 62
1
  0
LINE
  8
BOPEN_3D
 10
19.339824
 20
-6.609102
 11
19.347767
 21
-6.636242
 39
0.006944
 62
1
  0
LINE
  8
BOPEN_3D
 10
19.347767
 20
-6.636242
 11
19.366706
 21
-6.641992
 39
0.006944
 62
1
  0
LINE
  8
BOPEN_3D
 10
19.366706
 20
-6.641992
 11
19.385539
 21
-6.623017
 39
0.006944
 62
1
  0
LINE
  8
BOPEN_3D
 10
19.387357
 20
-7.161188
 11
19.395042
 21
-7.128731
 39
0.006944
 62
1
  0
LINE
  8
BOPEN_3D
 10
19.395042
 20
-7.128731
 11
19.387157
 21
-7.101929
 39
0.006944
 62
1
  0
LINE
  8
BOPEN_3D
 10
19.387157
 20
-7.101929
 11
19.368301
 21
-7.096475
 39
0.006944
 62
1
  0
LINE
  8
BOPEN_3D
 10
19.368301
 20
-7.096475
 11
19.349512
 21
-7.115599
 39
0.006944
 62
1
  0
LINE
  8
BOPEN_3D
 10
19.349512
 20
-7.115599
 11
19.341816
 21
-7.148104
 39
0.006944
 62
1
  0
LINE
  8
BOPEN_3D
 10
19.341816
 20
-7.148104
 11
19.349728
 21
-7.174916
 39
0.006944
 62
1
  0
LINE
  8
BOPEN_3D
 10
19.349728
 20
-7.174916
 11
19.368595
 21
-7.180321
 39
0.006944
 62
1
  0
LINE
  8
BOPEN_3D
 10
19.368595
 20
-7.180321
 11
19.387357
 21
-7.161188
 39
0.006944
 62
1
  0
LINE
  8
BOPEN_3D
 10
19.471464
 20
-7.531569
 11
19.269303
 21
-7.607533
 39
0.006944
 62
1
  0
LINE
  8
BOPEN_3D
 10
19.269303
 20
-7.607533
 11
19.324031
 21
-7.619517
 39
0.006944
 62
1
  0
LINE
  8
BOPEN_3D
 10
19.324031
 20
-7.619517
 11
19.526066
 21
-7.543422
 39
0.006944
 62
1
  0
LINE
  8
BOPEN_3D
 10
19.324031
 20
-7.619517
 11
19.269303
 21
-7.607533
 39
0.006944
 62
1
  0
LINE
  8
BOPEN_3D
 10
19.526066
 20
-7.543422
 11
19.324031
 21
-7.619517
 39
0.006944
 62
1
  0
LINE
  8
BOPEN_3D
 10
19.526066
 20
-7.543422
 11
19.471464
 21
-7.531569
 39
0.006944
 62
1
  0
LINE
  8
BOPEN_3D
 10
19.269303
 20
-7.607534
 11
19.270774
 21
-7.956236
 39
0.006944
 62
1
  0
LINE
  8
BOPEN_3D
 10
19.325241
 20
-7.935253
 11
19.324031
 21
-7.619518
 39
0.006944
 62
1
  0
LINE
  8
BOPEN_3D
 10
19.324031
 20
-7.619518
 11
19.325241
 21
-7.935254
 39
0.006944
 62
1
  0
LINE
  8
BOPEN_3D
 10
19.526821
 20
-7.857598
 11
19.325239
 21
-7.935253
 39
0.006944
 62
1
  0
LINE
  8
BOPEN_3D
 10
19.526823
 20
-7.857598
 11
19.526065
 21
-7.543421
 39
0.006944
 62
1
  0
LINE
  8
BOPEN_3D
 10
19.640843
 20
-7.813672
 11
19.526821
 21
-7.857598
 39
0.006944
 62
1
  0
LINE
  8
BOPEN_3D
 10
20.040137
 20
-0.009684
 11
19.763696
 21
0.017297
 39
0.006944
 62
1
  0
LINE
  8
BOPEN_3D
 10
18.915333
 20
-0.564388
 11
24.505723
 21
-1.169126
 39
0.006944
 62
1
  0
LINE
  8
BOPEN_3D
 10
25.667355
 20
-0.896931
 11
18.913031
 21
-0.204876
 39
0.006944
 62
1
  0
LINE
  8
BOPEN_3D
 10
18.913031
 20
-0.204876
 11
25.667355
 21
-0.896931
 39
0.006944
 62
1
  0
LINE
  8
BOPEN_3D
 10
26.685612
 20
-0.658333
 11
20.040137
 21
-0.009684
 39
0.006944
 62
1
  0
LINE
  8
BOPEN_3D
 10
26.685612
 20
-0.658333
 11
25.667355
 21
-0.896931
 39
0.006944
 62
1
  0
LINE
  8
BOPEN_3D
 10
25.667355
 20
-0.896931
 11
26.685612
 21
-0.658333
 39
0.006944
 62
1
  0
LINE
  8
BOPEN_3D
 10
26.685613
 20
-0.658333
 11
25.667354
 21
-0.896932
 39
0.006944
 62
1
  0
LINE
  8
BOPEN_3D
 10
27.025522
 20
-0.691511
 11
26.685612
 21
-0.658333
 39
0.006944
 62
1
  0
LINE
  8
BOPEN_3D
 10
21.084305
 20
-1.970835
 11
19.639585
 21
-2.309363
 39
0.006944
 62
1
  0
LINE
  8
BOPEN_3D
 10
19.639585
 20
-2.309363
 11
21.084305
 21
-1.970835
 39
0.006944
 62
1
  0
LINE
  8
BOPEN_3D
 10
21.084306
 20
-1.970835
 11
19.639585
 21
-2.309363
 39
0.006944
 62
1
  0
LINE
  8
BOPEN_3D
 10
20.019296
 20
-2.360386
 11
20.011770
 21
-2.362180
 39
0.006944
 62
1
  0
LINE
  8
BOPEN_3D
 10
20.011770
 20
-2.362180
 11
20.019296
 21
-2.360386
 39
0.006944
 62
1
  0
LINE
  8
BOPEN_3D
 10
20.012761
 20
-2.359508
 11
20.011771
 21
-2.359374
 39
0.006944
 62
1
  0
LINE
  8
BOPEN_3D
 10
20.019296
 20
-2.360386
 11
20.012761
 21
-2.359508
 39
0.006944
 62
1
  0
LINE
  8
BOPEN_3D
 10
20.012761
 20
-2.359508
 11
20.011771
 21
-2.359374
 39
0.006944
 62
1
  0
LINE
  8
BOPEN_3D
 10
20.019296
 20
-2.360386
 11
20.012761
 21
-2.359508
 39
0.006944
 62
1
  0
LINE
  8
BOPEN_3D
 10
20.012761
 20
-2.359508
 11
20.019296
 21
-2.360386
 39
0.006944
 62
1
  0
LINE
  8
BOPEN_3D
 10
20.011774
 20
-2.359375
 11
20.012761
 21
-2.359508
 39
0.006944
 62
1
  0
LINE
  8
BOPEN_3D
 10
25.667354
 20
-0.896932
 11
21.084306
 21
-1.970835
 39
0.006944
 62
1
  0
LINE
  8
BOPEN_3D
 10
20.019296
 20
-2.360386
 11
27.025522
 21
-0.691511
 39
0.006944
 62
1
  0
LINE
  8
BOPEN_3D
 10
27.025522
 20
-0.691511
 11
20.019296
 21
-2.360386
 39
0.006944
 62
1
  0
LINE
  8
BOPEN_3D
 10
26.349852
 20
-14.732206
 11
27.025522
 21
-0.691511
 39
0.006944
 62
1
  0
LINE
  8
BOPEN_3D
 10
12.085034
 20
-1.296671
 11
12.877339
 21
-16.377106
 39
0.006944
 62
1
  0
LINE
  8
BOPEN_3D
 10
13.532013
 20
-8.672557
 11
13.540982
 21
-8.634776
 39
0.006944
 62
1
  0
LINE
  8
BOPEN_3D
 10
13.478134
 20
-8.622026
 11
13.469151
 21
-8.659869
 39
0.006944
 62
1
  0
LINE
  8
BOPEN_3D
 10
13.469151
 20
-8.659869
 11
13.481235
 21
-8.690334
 39
0.006944
 62
1
  0
LINE
  8
BOPEN_3D
 10
13.481235
 20
-8.690334
 11
13.507277
 21
-8.695572
 39
0.006944
 62
1
  0
LINE
  8
BOPEN_3D
 10
13.507277
 20
-8.695572
 11
13.532013
 21
-8.672557
 39
0.006944
 62
1
  0
LINE
  8
BOPEN_3D
 10
12.409130
 20
-1.756708
 11
13.135621
 21
-16.140461
 39
0.006944
 62
1
  0
LINE
  8
BOPEN_3D
 10
12.400995
 20
-1.755555
 11
13.128517
 21
-16.144157
 39
0.006944
 62
1
  0
LINE
  8
BOPEN_3D
 10
13.135621
 20
-16.140461
 11
12.409130
 21
-1.756708
 39
0.006944
 62
1
  0
LINE
  8
BOPEN_3D
 10
13.128517
 20
-16.144157
 11
12.400993
 21
-1.755555
 39
0.006944
 62
1
  0
LINE
  8
BOPEN_3D
 10
13.135621
 20
-16.140461
 11
12.409130
 21
-1.756708
 39
0.006944
 62
1
  0
LINE
  8
BOPEN_3D
 10
13.530738
 20
-9.214674
 11
13.506082
 21
-9.237884
 39
0.006944
 62
1
  0
LINE
  8
BOPEN_3D
 10
13.506082
 20
-9.237884
 11
13.497137
 21
-9.275564
 39
0.006944
 62
1
  0
LINE
  8
BOPEN_3D
 10
13.497137
 20
-9.275564
 11
13.509154
 21
-9.305596
 39
0.006944
 62
1
  0
LINE
  8
BOPEN_3D
 10
13.509154
 20
-9.305596
 11
13.535065
 21
-9.310385
 39
0.006944
 62
1
  0
LINE
  8
BOPEN_3D
 10
13.646068
 20
-9.720471
 11
13.374283
 21
-9.822595
 39
0.006944
 62
1
  0
LINE
  8
BOPEN_3D
 10
13.374283
 20
-9.822595
 11
13.431857
 21
-9.838721
 39
0.006944
 62
1
  0
LINE
  8
BOPEN_3D
 10
13.374283
 20
-9.822596
 11
13.392795
 21
-10.220610
 39
0.006944
 62
1
  0
LINE
  8
BOPEN_3D
 10
13.448475
 20
-10.199160
 11
13.431856
 21
-9.838721
 39
0.006944
 62
1
  0
LINE
  8
BOPEN_3D
 10
13.431857
 20
-9.838721
 11
13.374283
 21
-9.822595
 39
0.006944
 62
1
  0
LINE
  8
BOPEN_3D
 10
13.431856
 20
-9.838721
 11
13.448475
 21
-10.199160
 39
0.006944
 62
1
  0
LINE
  8
BOPEN_3D
 10
13.448475
 20
-10.199160
 11
13.089255
 21
-10.337542
 39
0.006944
 62
1
  0
LINE
  8
BOPEN_3D
 10
13.089255
 20
-10.337542
 11
13.081859
 21
-10.340391
 39
0.006944
 62
1
  0
LINE
  8
BOPEN_3D
 10
13.081859
 20
-10.340391
 11
13.099840
 21
-10.708933
 39
0.006944
 62
1
  0
LINE
  8
BOPEN_3D
 10
13.419928
 20
-10.803986
 11
13.424606
 21
-10.904565
 39
0.006944
 62
1
  0
LINE
  8
BOPEN_3D
 10
13.424606
 20
-10.904565
 11
13.481785
 21
-10.921643
 39
0.006944
 62
1
  0
LINE
  8
BOPEN_3D
 10
13.481786
 20
-10.921643
 11
13.477145
 21
-10.820977
 39
0.006944
 62
1
  0
LINE
  8
BOPEN_3D
 10
13.477145
 20
-10.820977
 11
13.481786
 21
-10.921643
 39
0.006944
 62
1
  0
LINE
  8
BOPEN_3D
 10
13.559678
 20
-9.287166
 11
13.568608
 21
-9.249547
 39
0.006944
 62
1
  0
LINE
  8
BOPEN_3D
 10
13.568608
 20
-9.249547
 11
13.556633
 21
-9.219525
 39
0.006944
 62
1
  0
LINE
  8
BOPEN_3D
 10
13.556633
 20
-9.219525
 11
13.530738
 21
-9.214674
 39
0.006944
 62
1
  0
LINE
  8
BOPEN_3D
 10
13.535065
 20
-9.310385
 11
13.559678
 21
-9.287166
 39
0.006944
 62
1
  0
LINE
  8
BOPEN_3D
 10
19.325239
 20
-7.935253
 11
13.719362
 21
-10.094805
 39
0.006944
 62
1
  0
LINE
  8
BOPEN_3D
 10
13.431857
 20
-9.838721
 11
13.703547
 21
-9.736393
 39
0.006944
 62
1
  0
LINE
  8
BOPEN_3D
 10
13.703547
 20
-9.736393
 11
13.646068
 21
-9.720471
 39
0.006944
 62
1
  0
LINE
  8
BOPEN_3D
 10
13.703547
 20
-9.736393
 11
13.431857
 21
-9.838721
 39
0.006944
 62
1
  0
LINE
  8
BOPEN_3D
 10
13.719362
 20
-10.094807
 11
13.703547
 21
-9.736393
 39
0.006944
 62
1
  0
LINE
  8
BOPEN_3D
 10
13.719362
 20
-10.094805
 11
13.448475
 21
-10.199160
 39
0.006944
 62
1
  0
LINE
  8
BOPEN_3D
 10
13.481786
 20
-10.921643
 11
13.623738
 21
-10.864509
 39
0.006944
 62
1
  0
LINE
  8
BOPEN_3D
 10
13.641241
 20
-11.099211
 11
13.650055
 21
-11.062071
 39
0.006944
 62
1
  0
LINE
  8
BOPEN_3D
 10
13.650055
 20
-11.062071
 11
13.638275
 21
-11.033307
 39
0.006944
 62
1
  0
LINE
  8
BOPEN_3D
 10
13.638275
 20
-11.033307
 11
13.612771
 21
-11.029761
 39
0.006944
 62
1
  0
LINE
  8
BOPEN_3D
 10
13.612771
 20
-11.029761
 11
13.588475
 21
-11.053555
 39
0.006944
 62
1
  0
LINE
  8
BOPEN_3D
 10
13.588475
 20
-11.053555
 11
13.579646
 21
-11.090754
 39
0.006944
 62
1
  0
LINE
  8
BOPEN_3D
 10
13.579646
 20
-11.090754
 11
13.591467
 21
-11.119526
 39
0.006944
 62
1
  0
LINE
  8
BOPEN_3D
 10
13.591467
 20
-11.119526
 11
13.616987
 21
-11.123011
 39
0.006944
 62
1
  0
LINE
  8
BOPEN_3D
 10
13.616987
 20
-11.123011
 11
13.641241
 21
-11.099211
 39
0.006944
 62
1
  0
LINE
  8
BOPEN_3D
 10
19.647943
 20
-12.242869
 11
13.089255
 21
-10.337542
 39
0.006944
 62
1
  0
LINE
  8
BOPEN_3D
 10
13.081859
 20
-10.340391
 11
19.647953
 21
-12.248441
 39
0.006944
 62
1
  0
LINE
  8
BOPEN_3D
 10
19.647953
 20
-12.248441
 11
13.081859
 21
-10.340391
 39
0.006944
 62
1
  0
LINE
  8
BOPEN_3D
 10
19.647943
 20
-12.242869
 11
13.089255
 21
-10.337542
 39
0.006944
 62
1
  0
LINE
  8
BOPEN_3D
 10
13.089255
 20
-10.337542
 11
19.647943
 21
-12.242867
 39
0.006944
 62
1
  0
LINE
  8
BOPEN_3D
 10
13.667962
 20
-11.692856
 11
13.676738
 21
-11.655875
 39
0.006944
 62
1
  0
LINE
  8
BOPEN_3D
 10
13.676738
 20
-11.655875
 11
13.665021
 21
-11.627518
 39
0.006944
 62
1
  0
LINE
  8
BOPEN_3D
 10
13.665021
 20
-11.627518
 11
13.639645
 21
-11.624393
 39
0.006944
 62
1
  0
LINE
  8
BOPEN_3D
 10
13.639645
 20
-11.624393
 11
13.615465
 21
-11.648373
 39
0.006944
 62
1
  0
LINE
  8
BOPEN_3D
 10
13.615465
 20
-11.648373
 11
13.606674
 21
-11.685414
 39
0.006944
 62
1
  0
LINE
  8
BOPEN_3D
 10
13.606674
 20
-11.685414
 11
13.618433
 21
-11.713777
 39
0.006944
 62
1
  0
LINE
  8
BOPEN_3D
 10
13.618433
 20
-11.713777
 11
13.643824
 21
-11.716841
 39
0.006944
 62
1
  0
LINE
  8
BOPEN_3D
 10
13.643824
 20
-11.716841
 11
13.667962
 21
-11.692856
 39
0.006944
 62
1
  0
LINE
  8
BOPEN_3D
 10
13.694455
 20
-12.281429
 11
13.703193
 21
-12.244602
 39
0.006944
 62
1
  0
LINE
  8
BOPEN_3D
 10
13.703193
 20
-12.244602
 11
13.691539
 21
-12.216647
 39
0.006944
 62
1
  0
LINE
  8
BOPEN_3D
 10
13.691539
 20
-12.216647
 11
13.666291
 21
-12.213935
 39
0.006944
 62
1
  0
LINE
  8
BOPEN_3D
 10
13.666291
 20
-12.213935
 11
13.642226
 21
-12.238097
 39
0.006944
 62
1
  0
LINE
  8
BOPEN_3D
 10
13.642226
 20
-12.238097
 11
13.633474
 21
-12.274984
 39
0.006944
 62
1
  0
LINE
  8
BOPEN_3D
 10
13.633474
 20
-12.274984
 11
13.645170
 21
-12.302944
 39
0.006944
 62
1
  0
LINE
  8
BOPEN_3D
 10
13.645170
 20
-12.302944
 11
13.670432
 21
-12.305596
 39
0.006944
 62
1
  0
LINE
  8
BOPEN_3D
 10
13.670432
 20
-12.305596
 11
13.694455
 21
-12.281429
 39
0.006944
 62
1
  0
LINE
  8
BOPEN_3D
 10
13.099840
 20
-10.708933
 11
19.648601
 21
-12.653638
 39
0.006944
 62
1
  0
LINE
  8
BOPEN_3D
 10
19.632779
 20
-2.781070
 11
19.658298
 21
-18.703839
 39
0.006944
 62
1
  0
LINE
  8
BOPEN_3D
 10
13.135620
 20
-16.140461
 11
13.128517
 21
-16.144157
 39
0.006944
 62
1
  0
LINE
  8
BOPEN_3D
 10
13.135620
 20
-16.140459
 11
13.135620
 21
-16.140461
 39
0.006944
 62
1
  0
LINE
  8
BOPEN_3D
 10
13.720723
 20
-12.864993
 11
13.729423
 21
-12.828320
 39
0.006944
 62
1
  0
LINE
  8
BOPEN_3D
 10
13.729423
 20
-12.828320
 11
13.717831
 21
-12.800762
 39
0.006944
 62
1
  0
LINE
  8
BOPEN_3D
 10
13.717831
 20
-12.800762
 11
13.692707
 21
-12.798455
 39
0.006944
 62
1
  0
LINE
  8
BOPEN_3D
 10
13.692707
 20
-12.798455
 11
13.668760
 21
-12.822797
 39
0.006944
 62
1
  0
LINE
  8
BOPEN_3D
 10
13.668760
 20
-12.822797
 11
13.660044
 21
-12.859529
 39
0.006944
 62
1
  0
LINE
  8
BOPEN_3D
 10
13.660044
 20
-12.859529
 11
13.671676
 21
-12.887092
 39
0.006944
 62
1
  0
LINE
  8
BOPEN_3D
 10
13.671676
 20
-12.887092
 11
13.696816
 21
-12.889338
 39
0.006944
 62
1
  0
LINE
  8
BOPEN_3D
 10
13.696816
 20
-12.889338
 11
13.720723
 21
-12.864993
 39
0.006944
 62
1
  0
LINE
  8
BOPEN_3D
 10
13.743901
 20
-13.379924
 11
13.718901
 21
-13.378018
 39
0.006944
 62
1
  0
LINE
  8
BOPEN_3D
 10
13.718901
 20
-13.378018
 11
13.695066
 21
-13.402533
 39
0.006944
 62
1
  0
LINE
  8
BOPEN_3D
 10
13.746767
 20
-13.443611
 11
13.755431
 21
-13.407093
 39
0.006944
 62
1
  0
LINE
  8
BOPEN_3D
 10
13.755431
 20
-13.407093
 11
13.743901
 21
-13.379924
 39
0.006944
 62
1
  0
LINE
  8
BOPEN_3D
 10
13.695066
 20
-13.402533
 11
13.686387
 21
-13.439112
 39
0.006944
 62
1
  0
LINE
  8
BOPEN_3D
 10
13.686387
 20
-13.439112
 11
13.697959
 21
-13.466285
 39
0.006944
 62
1
  0
LINE
  8
BOPEN_3D
 10
13.697959
 20
-13.466285
 11
13.722973
 21
-13.468131
 39
0.006944
 62
1
  0
LINE
  8
BOPEN_3D
 10
13.722973
 20
-13.468131
 11
13.746767
 21
-13.443611
 39
0.006944
 62
1
  0
LINE
  8
BOPEN_3D
 10
19.648757
 20
-12.749360
 11
13.135620
 21
-16.140459
 39
0.006944
 62
1
  0
LINE
  8
BOPEN_3D
 10
13.128516
 20
-16.144158
 11
13.145693
 21
-16.483865
 39
0.006944
 62
1
  0
LINE
  8
BOPEN_3D
 10
13.128517
 20
-16.144157
 11
13.145692
 21
-16.483865
 39
0.006944
 62
1
  0
LINE
  8
BOPEN_3D
 10
12.877339
 20
-16.377106
 11
13.145693
 21
-16.483865
 39
0.006944
 62
1
  0
LINE
  8
BOPEN_3D
 10
13.145692
 20
-16.483865
 11
13.128517
 21
-16.144157
 39
0.006944
 62
1
  0
LINE
  8
BOPEN_3D
 10
13.145692
 20
-16.483865
 11
13.145694
 21
-16.483865
 39
0.006944
 62
1
  0
LINE
  8
BOPEN_3D
 10
13.128516
 20
-16.144158
 11
19.658297
 21
-18.703838
 39
0.006944
 62
1
  0
LINE
  8
BOPEN_3D
 10
19.658288
 20
-18.696609
 11
13.135620
 21
-16.140459
 39
0.006944
 62
1
  0
LINE
  8
BOPEN_3D
 10
19.658297
 20
-18.703838
 11
13.128516
 21
-16.144158
 39
0.006944
 62
1
  0
LINE
  8
BOPEN_3D
 10
19.658288
 20
-18.696609
 11
13.135620
 21
-16.140459
 39
0.006944
 62
1
  0
LINE
  8
BOPEN_3D
 10
13.135620
 20
-16.140459
 11
19.658286
 21
-18.696609
 39
0.006944
 62
1
  0
LINE
  8
BOPEN_3D
 10
13.145693
 20
-16.483865
 11
19.658892
 21
-19.075016
 39
0.006944
 62
1
  0
LINE
  8
BOPEN_3D
 10
19.658297
 20
-18.703838
 11
19.658892
 21
-19.075016
 39
0.006944
 62
1
  0
LINE
  8
BOPEN_3D
 10
19.658892
 20
-19.075016
 11
19.658297
 21
-18.703838
 39
0.006944
 62
1
  0
LINE
  8
BOPEN_3D
 10
19.658298
 20
-18.703839
 11
19.658893
 21
-19.075015
 39
0.006944
 62
1
  0
LINE
  8
BOPEN_3D
 10
19.658892
 20
-19.075016
 11
19.995281
 21
-19.208844
 39
0.006944
 62
1
  0
LINE
  8
BOPEN_3D
 10
20.001949
 20
-19.204145
 11
20.019296
 21
-2.360386
 39
0.006944
 62
1
  0
LINE
  8
BOPEN_3D
 10
20.011770
 20
-2.362180
 11
19.995281
 21
-19.208844
 39
0.006944
 62
1
  0
LINE
  8
BOPEN_3D
 10
19.995281
 20
-19.208844
 11
20.011770
 21
-2.362180
 39
0.006944
 62
1
  0
LINE
  8
BOPEN_3D
 10
20.001949
 20
-19.204145
 11
20.019296
 21
-2.360386
 39
0.006944
 62
1
  0
LINE
  8
BOPEN_3D
 10
20.019296
 20
-2.360386
 11
20.001949
 21
-19.204145
 39
0.006944
 62
1
  0
LINE
  8
BOPEN_3D
 10
20.001949
 20
-19.204145
 11
26.349852
 21
-14.732206
 39
0.006944
 62
1
  0
LINE
  8
BOPEN_3D
 10
19.995281
 20
-19.208844
 11
20.001949
 21
-19.204145
 39
0.006944
 62
1
  0
LINE
  8
BOPEN_End
 10
-7.943418
 20
-0.001290
 11
-7.943418
 21
-0.001290
 39
0.006944
 62
1
  0
LINE
  8
BOPEN_End
 10
-7.943419
 20
-0.001290
 11
-7.955918
 21
-0.001290
 39
0.006944
 62
1
  0
LINE
  8
BOPEN_End
 10
-7.943418
 20
-0.001290
 11
-7.943419
 21
-0.001290
 39
0.006944
 62
1
  0
LINE
  8
BOPEN_End
 10
-7.955918
 20
-0.001290
 11
-7.955918
 21
-0.001290
 39
0.006944
 62
1
  0
LINE
  8
BOPEN_End
 10
-7.955918
 20
-0.001290
 11
-7.943418
 21
-0.001290
 39
0.006944
 62
1
  0
LINE
  8
BOPEN_End
 10
-7.943418
 20
-0.001290
 11
-7.943418
 21
-0.001290
 39
0.006944
 62
1
  0
LINE
  8
BOPEN_End
 10
-7.955918
 20
-0.001290
 11
-7.955918
 21
-0.001290
 39
0.006944
 62
1
  0
LINE
  8
BOPEN_End
 10
-7.943418
 20
-0.001290
 11
-7.943418
 21
-0.001290
 39
0.006944
 62
1
  0
LINE
  8
BOPEN_End
 10
-7.943418
 20
-0.001290
 11
-7.943418
 21
-0.001290
 39
0.006944
 62
1
  0
LINE
  8
BOPEN_End
 10
-7.955918
 20
-0.001290
 11
-7.955918
 21
-0.001290
 39
0.006944
 62
1
  0
LINE
  8
BOPEN_End
 10
-7.955918
 20
-0.001290
 11
-7.943418
 21
-0.001290
 39
0.006944
 62
1
  0
LINE
  8
BOPEN_End
 10
-7.943418
 20
-0.001290
 11
-7.943418
 21
-0.001290
 39
0.006944
 62
1
  0
LINE
  8
BOPEN_End
 10
-7.943419
 20
-0.001290
 11
-7.955918
 21
-0.001290
 39
0.006944
 62
1
  0
LINE
  8
BOPEN_End
 10
-7.943418
 20
-0.001290
 11
-7.943419
 21
-0.001290
 39
0.006944
 62
1
  0
LINE
  8
BOPEN_End
 10
-7.943419
 20
-0.001290
 11
-7.955918
 21
-0.001290
 39
0.006944
 62
1
  0
LINE
  8
BOPEN_End
 10
-7.943418
 20
-0.001290
 11
-7.943419
 21
-0.001290
 39
0.006944
 62
1
  0
LINE
  8
BOPEN_End
 10
-7.943418
 20
-0.001290
 11
-7.943418
 21
-0.001290
 39
0.006944
 62
1
  0
LINE
  8
BOPEN_End
 10
-7.955918
 20
-0.001290
 11
-7.955918
 21
-0.001290
 39
0.006944
 62
1
  0
LINE
  8
BOPEN_End
 10
-7.943418
 20
-0.001290
 11
-7.943418
 21
-0.001290
 39
0.006944
 62
1
  0
LINE
  8
BOPEN_End
 10
-7.943418
 20
-0.001290
 11
-7.943418
 21
-0.001290
 39
0.006944
 62
1
  0
LINE
  8
BOPEN_End
 10
-5.455918
 20
-0.001290
 11
-7.943418
 21
-0.001290
 39
0.006944
 62
1
  0
LINE
  8
BOPEN_End
 10
-7.943418
 20
-0.001290
 11
-5.455918
 21
-0.001290
 39
0.006944
 62
1
  0
LINE
  8
BOPEN_End
 10
-5.455918
 20
-0.001290
 11
-7.943418
 21
-0.001290
 39
0.006944
 62
1
  0
LINE
  8
BOPEN_End
 10
-5.455918
 20
-0.001290
 11
-7.943418
 21
-0.001290
 39
0.006944
 62
1
  0
LINE
  8
BOPEN_End
 10
-7.943418
 20
-0.001290
 11
-5.455918
 21
-0.001290
 39
0.006944
 62
1
  0
LINE
  8
BOPEN_End
 10
-7.943418
 20
-0.001290
 11
-7.943418
 21
-0.476290
 39
0.006944
 62
1
  0
LINE
  8
BOPEN_End
 10
-7.943418
 20
-0.001290
 11
-7.943418
 21
-0.476290
 39
0.006944
 62
1
  0
LINE
  8
BOPEN_End
 10
-7.955918
 20
-0.476290
 11
-7.955918
 21
-0.001290
 39
0.006944
 62
1
  0
LINE
  8
BOPEN_End
 10
-7.943418
 20
-0.476290
 11
-7.943418
 21
-0.001290
 39
0.006944
 62
1
  0
LINE
  8
BOPEN_End
 10
-7.955918
 20
-0.001290
 11
-7.955918
 21
-0.476290
 39
0.006944
 62
1
  0
LINE
  8
BOPEN_End
 10
-7.943418
 20
-0.001290
 11
-7.943418
 21
-0.476290
 39
0.006944
 62
1
  0
LINE
  8
BOPEN_End
 10
-7.943418
 20
-0.476290
 11
-7.943418
 21
-0.001290
 39
0.006944
 62
1
  0
LINE
  8
BOPEN_End
 10
-7.955918
 20
-0.001290
 11
-7.955918
 21
-0.476290
 39
0.006944
 62
1
  0
LINE
  8
BOPEN_End
 10
-7.943418
 20
-0.476290
 11
-7.943418
 21
-0.001290
 39
0.006944
 62
1
  0
LINE
  8
BOPEN_End
 10
-7.943418
 20
-0.001290
 11
-7.943418
 21
-0.476290
 39
0.006944
 62
1
  0
LINE
  8
BOPEN_End
 10
-7.955918
 20
-0.001290
 11
-7.955918
 21
-0.476290
 39
0.006944
 62
1
  0
LINE
  8
BOPEN_End
 10
-7.955918
 20
-0.476290
 11
-7.955918
 21
-0.001290
 39
0.006944
 62
1
  0
LINE
  8
BOPEN_End
 10
-7.943418
 20
-0.476290
 11
-7.943418
 21
-0.001290
 39
0.006944
 62
1
  0
LINE
  8
BOPEN_End
 10
-7.565526
 20
-0.310997
 11
-7.595437
 21
-0.238791
 39
0.006944
 62
1
  0
LINE
  8
BOPEN_End
 10
-7.595437
 20
-0.238791
 11
-7.565526
 21
-0.166583
 39
0.006944
 62
1
  0
LINE
  8
BOPEN_End
 10
-7.565526
 20
-0.166583
 11
-7.493321
 21
-0.136674
 39
0.006944
 62
1
  0
LINE
  8
BOPEN_End
 10
-7.493321
 20
-0.136674
 11
-7.421112
 21
-0.166583
 39
0.006944
 62
1
  0
LINE
  8
BOPEN_End
 10
-7.421112
 20
-0.166583
 11
-7.391202
 21
-0.238791
 39
0.006944
 62
1
  0
LINE
  8
BOPEN_End
 10
-7.391202
 20
-0.238791
 11
-7.421112
 21
-0.310997
 39
0.006944
 62
1
  0
LINE
  8
BOPEN_End
 10
-7.421112
 20
-0.166583
 11
-7.493321
 21
-0.136674
 39
0.006944
 62
1
  0
LINE
  8
BOPEN_End
 10
-7.493321
 20
-0.136674
 11
-7.565526
 21
-0.166583
 39
0.006944
 62
1
  0
LINE
  8
BOPEN_End
 10
-7.565526
 20
-0.166583
 11
-7.595437
 21
-0.238791
 39
0.006944
 62
1
  0
LINE
  8
BOPEN_End
 10
-7.595437
 20
-0.238791
 11
-7.565526
 21
-0.310997
 39
0.006944
 62
1
  0
LINE
  8
BOPEN_End
 10
-7.421112
 20
-0.310997
 11
-7.391202
 21
-0.238791
 39
0.006944
 62
1
  0
LINE
  8
BOPEN_End
 10
-7.391202
 20
-0.238791
 11
-7.421112
 21
-0.166583
 39
0.006944
 62
1
  0
LINE
  8
BOPEN_End
 10
-7.955918
 20
-0.476290
 11
-7.955918
 21
-0.476290
 39
0.006944
 62
1
  0
LINE
  8
BOPEN_End
 10
-7.955918
 20
-0.476290
 11
-7.943418
 21
-0.476290
 39
0.006944
 62
1
  0
LINE
  8
BOPEN_End
 10
-7.943418
 20
-0.476290
 11
-7.943418
 21
-0.476290
 39
0.006944
 62
1
  0
LINE
  8
BOPEN_End
 10
-7.943418
 20
-0.476290
 11
-7.955918
 21
-0.476290
 39
0.006944
 62
1
  0
LINE
  8
BOPEN_End
 10
-7.943418
 20
-0.476290
 11
-7.943418
 21
-0.476290
 39
0.006944
 62
1
  0
LINE
  8
BOPEN_End
 10
-7.955918
 20
-0.476290
 11
-7.955918
 21
-0.476290
 39
0.006944
 62
1
  0
LINE
  8
BOPEN_End
 10
-7.943418
 20
-0.476290
 11
-7.943418
 21
-0.476290
 39
0.006944
 62
1
  0
LINE
  8
BOPEN_End
 10
-7.943418
 20
-0.476290
 11
-7.943418
 21
-0.476290
 39
0.006944
 62
1
  0
LINE
  8
BOPEN_End
 10
-7.421112
 20
-0.310997
 11
-7.493321
 21
-0.340906
 39
0.006944
 62
1
  0
LINE
  8
BOPEN_End
 10
-7.493321
 20
-0.340906
 11
-7.565526
 21
-0.310997
 39
0.006944
 62
1
  0
LINE
  8
BOPEN_End
 10
-7.565526
 20
-0.310997
 11
-7.493321
 21
-0.340906
 39
0.006944
 62
1
  0
LINE
  8
BOPEN_End
 10
-7.493321
 20
-0.340906
 11
-7.421112
 21
-0.310997
 39
0.006944
 62
1
  0
LINE
  8
BOPEN_End
 10
-5.455918
 20
-0.476290
 11
-7.943418
 21
-0.476290
 39
0.006944
 62
1
  0
LINE
  8
BOPEN_End
 10
-7.943418
 20
-0.476290
 11
-5.455918
 21
-0.476290
 39
0.006944
 62
1
  0
LINE
  8
BOPEN_End
 10
-5.455918
 20
-0.001290
 11
-5.455918
 21
-0.001290
 39
0.006944
 62
1
  0
LINE
  8
BOPEN_End
 10
-5.455918
 20
-0.001290
 11
-5.455918
 21
-0.001290
 39
0.006944
 62
1
  0
LINE
  8
BOPEN_End
 10
-5.990725
 20
-0.310997
 11
-6.020633
 21
-0.238791
 39
0.006944
 62
1
  0
LINE
  8
BOPEN_End
 10
-6.020633
 20
-0.238791
 11
-5.990725
 21
-0.166583
 39
0.006944
 62
1
  0
LINE
  8
BOPEN_End
 10
-5.990725
 20
-0.166583
 11
-5.918517
 21
-0.136674
 39
0.006944
 62
1
  0
LINE
  8
BOPEN_End
 10
-5.918517
 20
-0.136674
 11
-5.846310
 21
-0.166583
 39
0.006944
 62
1
  0
LINE
  8
BOPEN_End
 10
-5.846310
 20
-0.166583
 11
-5.816401
 21
-0.238791
 39
0.006944
 62
1
  0
LINE
  8
BOPEN_End
 10
-5.816401
 20
-0.238791
 11
-5.846310
 21
-0.310997
 39
0.006944
 62
1
  0
LINE
  8
BOPEN_End
 10
-5.846310
 20
-0.166583
 11
-5.918517
 21
-0.136674
 39
0.006944
 62
1
  0
LINE
  8
BOPEN_End
 10
-5.918517
 20
-0.136674
 11
-5.990725
 21
-0.166583
 39
0.006944
 62
1
  0
LINE
  8
BOPEN_End
 10
-5.990725
 20
-0.166583
 11
-6.020633
 21
-0.238791
 39
0.006944
 62
1
  0
LINE
  8
BOPEN_End
 10
-6.020633
 20
-0.238791
 11
-5.990725
 21
-0.310997
 39
0.006944
 62
1
  0
LINE
  8
BOPEN_End
 10
-5.846310
 20
-0.310997
 11
-5.816401
 21
-0.238791
 39
0.006944
 62
1
  0
LINE
  8
BOPEN_End
 10
-5.816401
 20
-0.238791
 11
-5.846310
 21
-0.166583
 39
0.006944
 62
1
  0
LINE
  8
BOPEN_End
 10
-5.455918
 20
-0.476290
 11
-5.455918
 21
-0.001290
 39
0.006944
 62
1
  0
LINE
  8
BOPEN_End
 10
-5.455918
 20
-0.001290
 11
-5.455918
 21
-0.476290
 39
0.006944
 62
1
  0
LINE
  8
BOPEN_End
 10
-5.846310
 20
-0.310997
 11
-5.918517
 21
-0.340906
 39
0.006944
 62
1
  0
LINE
  8
BOPEN_End
 10
-5.918517
 20
-0.340906
 11
-5.990725
 21
-0.310997
 39
0.006944
 62
1
  0
LINE
  8
BOPEN_End
 10
-5.990725
 20
-0.310997
 11
-5.918517
 21
-0.340906
 39
0.006944
 62
1
  0
LINE
  8
BOPEN_End
 10
-5.918517
 20
-0.340906
 11
-5.846310
 21
-0.310997
 39
0.006944
 62
1
  0
LINE
  8
BOPEN_End
 10
-5.455918
 20
-0.476290
 11
-5.455918
 21
-0.476290
 39
0.006944
 62
1
  0
LINE
  8
BOPEN_End
 10
-5.455918
 20
-0.476290
 11
-5.455918
 21
-0.476290
 39
0.006944
 62
1
  0
LINE
  8
BOPEN_End
 10
3.997204
 20
-0.001290
 11
-5.455918
 21
-0.001290
 39
0.006944
 62
1
  0
LINE
  8
BOPEN_End
 10
3.997204
 20
-0.001290
 11
-5.455918
 21
-0.001290
 39
0.006944
 62
1
  0
LINE
  8
BOPEN_End
 10
-5.455918
 20
-0.001290
 11
3.997204
 21
-0.001290
 39
0.006944
 62
1
  0
LINE
  8
BOPEN_End
 10
-6.749415
 20
-4.246669
 11
-6.767435
 21
-4.290168
 39
0.006944
 62
1
  0
LINE
  8
BOPEN_End
 10
-6.767435
 20
-4.290168
 11
-6.749415
 21
-4.333666
 39
0.006944
 62
1
  0
LINE
  8
BOPEN_End
 10
-6.662421
 20
-4.333666
 11
-6.644402
 21
-4.290168
 39
0.006944
 62
1
  0
LINE
  8
BOPEN_End
 10
-6.644402
 20
-4.290168
 11
-6.662421
 21
-4.246669
 39
0.006944
 62
1
  0
LINE
  8
BOPEN_End
 10
-6.662421
 20
-4.246669
 11
-6.705918
 21
-4.228653
 39
0.006944
 62
1
  0
LINE
  8
BOPEN_End
 10
-6.705918
 20
-4.228653
 11
-6.749415
 21
-4.246669
 39
0.006944
 62
1
  0
LINE
  8
BOPEN_End
 10
-6.749415
 20
-4.333666
 11
-6.705918
 21
-4.351683
 39
0.006944
 62
1
  0
LINE
  8
BOPEN_End
 10
-6.705918
 20
-4.351683
 11
-6.662421
 21
-4.333666
 39
0.006944
 62
1
  0
LINE
  8
BOPEN_End
 10
-6.749415
 20
-5.034071
 11
-6.767435
 21
-5.077570
 39
0.006944
 62
1
  0
LINE
  8
BOPEN_End
 10
-6.644402
 20
-5.077570
 11
-6.662421
 21
-5.034071
 39
0.006944
 62
1
  0
LINE
  8
BOPEN_End
 10
-6.662421
 20
-5.034071
 11
-6.705918
 21
-5.016054
 39
0.006944
 62
1
  0
LINE
  8
BOPEN_End
 10
-6.705918
 20
-5.016054
 11
-6.749415
 21
-5.034071
 39
0.006944
 62
1
  0
LINE
  8
BOPEN_End
 10
-6.767435
 20
-5.077570
 11
-6.749415
 21
-5.121068
 39
0.006944
 62
1
  0
LINE
  8
BOPEN_End
 10
-6.662421
 20
-5.121068
 11
-6.644402
 21
-5.077570
 39
0.006944
 62
1
  0
LINE
  8
BOPEN_End
 10
-6.749415
 20
-5.121068
 11
-6.705918
 21
-5.139085
 39
0.006944
 62
1
  0
LINE
  8
BOPEN_End
 10
-6.705918
 20
-5.139085
 11
-6.662421
 21
-5.121068
 39
0.006944
 62
1
  0
LINE
  8
BOPEN_End
 10
-6.749415
 20
-5.821474
 11
-6.767435
 21
-5.864971
 39
0.006944
 62
1
  0
LINE
  8
BOPEN_End
 10
-6.767435
 20
-5.864971
 11
-6.749415
 21
-5.908469
 39
0.006944
 62
1
  0
LINE
  8
BOPEN_End
 10
-6.662421
 20
-5.908469
 11
-6.644402
 21
-5.864971
 39
0.006944
 62
1
  0
LINE
  8
BOPEN_End
 10
-6.644402
 20
-5.864971
 11
-6.662421
 21
-5.821474
 39
0.006944
 62
1
  0
LINE
  8
BOPEN_End
 10
-6.662421
 20
-5.821474
 11
-6.705918
 21
-5.803455
 39
0.006944
 62
1
  0
LINE
  8
BOPEN_End
 10
-6.705918
 20
-5.803455
 11
-6.749415
 21
-5.821474
 39
0.006944
 62
1
  0
LINE
  8
BOPEN_End
 10
-6.749415
 20
-5.908469
 11
-6.705918
 21
-5.926488
 39
0.006944
 62
1
  0
LINE
  8
BOPEN_End
 10
-6.705918
 20
-5.926488
 11
-6.662421
 21
-5.908469
 39
0.006944
 62
1
  0
LINE
  8
BOPEN_End
 10
-6.749415
 20
-6.608875
 11
-6.767435
 21
-6.652373
 39
0.006944
 62
1
  0
LINE
  8
BOPEN_End
 10
-6.767435
 20
-6.652373
 11
-6.749415
 21
-6.695871
 39
0.006944
 62
1
  0
LINE
  8
BOPEN_End
 10
-6.662421
 20
-6.695871
 11
-6.644402
 21
-6.652373
 39
0.006944
 62
1
  0
LINE
  8
BOPEN_End
 10
-6.644402
 20
-6.652373
 11
-6.662421
 21
-6.608875
 39
0.006944
 62
1
  0
LINE
  8
BOPEN_End
 10
-6.662421
 20
-6.608875
 11
-6.705918
 21
-6.590858
 39
0.006944
 62
1
  0
LINE
  8
BOPEN_End
 10
-6.705918
 20
-6.590858
 11
-6.749415
 21
-6.608875
 39
0.006944
 62
1
  0
LINE
  8
BOPEN_End
 10
-6.749415
 20
-6.695871
 11
-6.705918
 21
-6.713889
 39
0.006944
 62
1
  0
LINE
  8
BOPEN_End
 10
-6.705918
 20
-6.713889
 11
-6.662421
 21
-6.695871
 39
0.006944
 62
1
  0
LINE
  8
BOPEN_End
 10
-6.749415
 20
-7.396276
 11
-6.767435
 21
-7.439774
 39
0.006944
 62
1
  0
LINE
  8
BOPEN_End
 10
-6.767435
 20
-7.439774
 11
-6.749415
 21
-7.483273
 39
0.006944
 62
1
  0
LINE
  8
BOPEN_End
 10
-6.662421
 20
-7.483273
 11
-6.644402
 21
-7.439774
 39
0.006944
 62
1
  0
LINE
  8
BOPEN_End
 10
-6.644402
 20
-7.439774
 11
-6.662421
 21
-7.396276
 39
0.006944
 62
1
  0
LINE
  8
BOPEN_End
 10
-6.662421
 20
-7.396276
 11
-6.705918
 21
-7.378259
 39
0.006944
 62
1
  0
LINE
  8
BOPEN_End
 10
-6.705918
 20
-7.378259
 11
-6.749415
 21
-7.396276
 39
0.006944
 62
1
  0
LINE
  8
BOPEN_End
 10
-6.749415
 20
-7.483273
 11
-6.705918
 21
-7.501290
 39
0.006944
 62
1
  0
LINE
  8
BOPEN_End
 10
-6.705918
 20
-7.501290
 11
-6.662421
 21
-7.483273
 39
0.006944
 62
1
  0
LINE
  8
BOPEN_End
 10
-6.749415
 20
-8.183678
 11
-6.767435
 21
-8.227176
 39
0.006944
 62
1
  0
LINE
  8
BOPEN_End
 10
-6.767435
 20
-8.227176
 11
-6.749415
 21
-8.270674
 39
0.006944
 62
1
  0
LINE
  8
BOPEN_End
 10
-6.662421
 20
-8.270674
 11
-6.644402
 21
-8.227176
 39
0.006944
 62
1
  0
LINE
  8
BOPEN_End
 10
-6.644402
 20
-8.227176
 11
-6.662421
 21
-8.183678
 39
0.006944
 62
1
  0
LINE
  8
BOPEN_End
 10
-6.662421
 20
-8.183678
 11
-6.705918
 21
-8.165660
 39
0.006944
 62
1
  0
LINE
  8
BOPEN_End
 10
-6.705918
 20
-8.165660
 11
-6.749415
 21
-8.183678
 39
0.006944
 62
1
  0
LINE
  8
BOPEN_End
 10
-6.749415
 20
-8.270674
 11
-6.705918
 21
-8.288692
 39
0.006944
 62
1
  0
LINE
  8
BOPEN_End
 10
-6.705918
 20
-8.288692
 11
-6.662421
 21
-8.270674
 39
0.006944
 62
1
  0
LINE
  8
BOPEN_End
 10
-6.662421
 20
-8.971080
 11
-6.705918
 21
-8.953061
 39
0.006944
 62
1
  0
LINE
  8
BOPEN_End
 10
-6.705918
 20
-8.953061
 11
-6.749415
 21
-8.971080
 39
0.006944
 62
1
  0
LINE
  8
BOPEN_End
 10
-7.943418
 20
-0.476290
 11
-7.943418
 21
-18.588789
 39
0.006944
 62
1
  0
LINE
  8
BOPEN_End
 10
-7.955918
 20
-0.476290
 11
-7.955918
 21
-18.588789
 39
0.006944
 62
1
  0
LINE
  8
BOPEN_End
 10
-7.943418
 20
-18.588789
 11
-7.943418
 21
-0.476290
 39
0.006944
 62
1
  0
LINE
  8
BOPEN_End
 10
-7.943418
 20
-0.476290
 11
-7.943418
 21
-18.588789
 39
0.006944
 62
1
  0
LINE
  8
BOPEN_End
 10
-7.955918
 20
-0.476290
 11
-7.955918
 21
-18.588789
 39
0.006944
 62
1
  0
LINE
  8
BOPEN_End
 10
-7.955918
 20
-18.588789
 11
-7.955918
 21
-0.476290
 39
0.006944
 62
1
  0
LINE
  8
BOPEN_End
 10
-7.943418
 20
-18.588789
 11
-7.943418
 21
-0.476290
 39
0.006944
 62
1
  0
LINE
  8
BOPEN_End
 10
-6.749415
 20
-8.971080
 11
-6.767435
 21
-9.014578
 39
0.006944
 62
1
  0
LINE
  8
BOPEN_End
 10
-6.767435
 20
-9.014578
 11
-6.749415
 21
-9.058075
 39
0.006944
 62
1
  0
LINE
  8
BOPEN_End
 10
-6.662421
 20
-9.058075
 11
-6.644402
 21
-9.014578
 39
0.006944
 62
1
  0
LINE
  8
BOPEN_End
 10
-6.644402
 20
-9.014578
 11
-6.662421
 21
-8.971080
 39
0.006944
 62
1
  0
LINE
  8
BOPEN_End
 10
-6.749415
 20
-9.058075
 11
-6.705918
 21
-9.076093
 39
0.006944
 62
1
  0
LINE
  8
BOPEN_End
 10
-6.705918
 20
-9.076093
 11
-6.662421
 21
-9.058075
 39
0.006944
 62
1
  0
LINE
  8
BOPEN_End
 10
3.997204
 20
-0.001290
 11
3.997204
 21
-0.001290
 39
0.006944
 62
1
  0
LINE
  8
BOPEN_End
 10
3.997204
 20
-0.001290
 11
3.997204
 21
-0.001290
 39
0.006944
 62
1
  0
LINE
  8
BOPEN_End
 10
4.231349
 20
-0.310997
 11
4.201440
 21
-0.238791
 39
0.006944
 62
1
  0
LINE
  8
BOPEN_End
 10
4.201440
 20
-0.238791
 11
4.231349
 21
-0.166583
 39
0.006944
 62
1
  0
LINE
  8
BOPEN_End
 10
4.231349
 20
-0.166583
 11
4.303554
 21
-0.136674
 39
0.006944
 62
1
  0
LINE
  8
BOPEN_End
 10
4.303554
 20
-0.136674
 11
4.375763
 21
-0.166583
 39
0.006944
 62
1
  0
LINE
  8
BOPEN_End
 10
3.997204
 20
-0.001290
 11
3.997204
 21
-0.476290
 39
0.006944
 62
1
  0
LINE
  8
BOPEN_End
 10
3.997204
 20
-0.476290
 11
3.997204
 21
-0.001290
 39
0.006944
 62
1
  0
LINE
  8
BOPEN_End
 10
4.375763
 20
-0.166583
 11
4.303554
 21
-0.136674
 39
0.006944
 62
1
  0
LINE
  8
BOPEN_End
 10
4.303554
 20
-0.136674
 11
4.231349
 21
-0.166583
 39
0.006944
 62
1
  0
LINE
  8
BOPEN_End
 10
4.231349
 20
-0.166583
 11
4.201440
 21
-0.238791
 39
0.006944
 62
1
  0
LINE
  8
BOPEN_End
 10
4.201440
 20
-0.238791
 11
4.231349
 21
-0.310997
 39
0.006944
 62
1
  0
LINE
  8
BOPEN_End
 10
4.375763
 20
-0.166583
 11
4.405672
 21
-0.238791
 39
0.006944
 62
1
  0
LINE
  8
BOPEN_End
 10
4.405672
 20
-0.238791
 11
4.375763
 21
-0.310997
 39
0.006944
 62
1
  0
LINE
  8
BOPEN_End
 10
4.375763
 20
-0.310997
 11
4.405672
 21
-0.238791
 39
0.006944
 62
1
  0
LINE
  8
BOPEN_End
 10
4.405672
 20
-0.238791
 11
4.375763
 21
-0.166583
 39
0.006944
 62
1
  0
LINE
  8
BOPEN_End
 10
4.375763
 20
-0.310997
 11
4.303554
 21
-0.340906
 39
0.006944
 62
1
  0
LINE
  8
BOPEN_End
 10
4.303554
 20
-0.340906
 11
4.231349
 21
-0.310997
 39
0.006944
 62
1
  0
LINE
  8
BOPEN_End
 10
3.997204
 20
-0.476290
 11
3.997204
 21
-0.476290
 39
0.006944
 62
1
  0
LINE
  8
BOPEN_End
 10
3.997204
 20
-0.476290
 11
3.997204
 21
-0.476290
 39
0.006944
 62
1
  0
LINE
  8
BOPEN_End
 10
4.231349
 20
-0.310997
 11
4.303554
 21
-0.340906
 39
0.006944
 62
1
  0
LINE
  8
BOPEN_End
 10
4.303554
 20
-0.340906
 11
4.375763
 21
-0.310997
 39
0.006944
 62
1
  0
LINE
  8
BOPEN_End
 10
6.497206
 20
-0.001290
 11
3.997204
 21
-0.001290
 39
0.006944
 62
1
  0
LINE
  8
BOPEN_End
 10
3.997204
 20
-0.001290
 11
6.497206
 21
-0.001290
 39
0.006944
 62
1
  0
LINE
  8
BOPEN_End
 10
6.497206
 20
-0.001290
 11
3.997204
 21
-0.001290
 39
0.006944
 62
1
  0
LINE
  8
BOPEN_End
 10
6.497206
 20
-0.001290
 11
3.997204
 21
-0.001290
 39
0.006944
 62
1
  0
LINE
  8
BOPEN_End
 10
3.997204
 20
-0.001290
 11
6.497206
 21
-0.001290
 39
0.006944
 62
1
  0
LINE
  8
BOPEN_End
 10
6.497206
 20
-0.001290
 11
6.497206
 21
-0.001290
 39
0.006944
 62
1
  0
LINE
  8
BOPEN_End
 10
6.497206
 20
-0.001290
 11
6.497206
 21
-0.001290
 39
0.006944
 62
1
  0
LINE
  8
BOPEN_End
 10
6.497206
 20
-0.001290
 11
6.497206
 21
-0.001290
 39
0.006944
 62
1
  0
LINE
  8
BOPEN_End
 10
6.497206
 20
-0.001290
 11
6.497206
 21
-0.001290
 39
0.006944
 62
1
  0
LINE
  8
BOPEN_End
 10
5.493650
 20
-0.310997
 11
5.463741
 21
-0.238791
 39
0.006944
 62
1
  0
LINE
  8
BOPEN_End
 10
5.463741
 20
-0.238791
 11
5.493650
 21
-0.166583
 39
0.006944
 62
1
  0
LINE
  8
BOPEN_End
 10
5.493650
 20
-0.166583
 11
5.565859
 21
-0.136674
 39
0.006944
 62
1
  0
LINE
  8
BOPEN_End
 10
5.565859
 20
-0.136674
 11
5.638064
 21
-0.166583
 39
0.006944
 62
1
  0
LINE
  8
BOPEN_End
 10
5.638064
 20
-0.166583
 11
5.667973
 21
-0.238791
 39
0.006944
 62
1
  0
LINE
  8
BOPEN_End
 10
5.667973
 20
-0.238791
 11
5.638064
 21
-0.310997
 39
0.006944
 62
1
  0
LINE
  8
BOPEN_End
 10
5.638064
 20
-0.166583
 11
5.565859
 21
-0.136674
 39
0.006944
 62
1
  0
LINE
  8
BOPEN_End
 10
5.565859
 20
-0.136674
 11
5.493650
 21
-0.166583
 39
0.006944
 62
1
  0
LINE
  8
BOPEN_End
 10
5.493650
 20
-0.166583
 11
5.463741
 21
-0.238791
 39
0.006944
 62
1
  0
LINE
  8
BOPEN_End
 10
5.463741
 20
-0.238791
 11
5.493650
 21
-0.310997
 39
0.006944
 62
1
  0
LINE
  8
BOPEN_End
 10
5.638064
 20
-0.310997
 11
5.667973
 21
-0.238791
 39
0.006944
 62
1
  0
LINE
  8
BOPEN_End
 10
5.667973
 20
-0.238791
 11
5.638064
 21
-0.166583
 39
0.006944
 62
1
  0
LINE
  8
BOPEN_End
 10
5.834707
 20
-0.476290
 11
3.997204
 21
-0.476290
 39
0.006944
 62
1
  0
LINE
  8
BOPEN_End
 10
3.997204
 20
-0.476290
 11
5.834707
 21
-0.476290
 39
0.006944
 62
1
  0
LINE
  8
BOPEN_End
 10
5.638064
 20
-0.310997
 11
5.565859
 21
-0.340906
 39
0.006944
 62
1
  0
LINE
  8
BOPEN_End
 10
5.565859
 20
-0.340906
 11
5.493650
 21
-0.310997
 39
0.006944
 62
1
  0
LINE
  8
BOPEN_End
 10
5.493650
 20
-0.310997
 11
5.565859
 21
-0.340906
 39
0.006944
 62
1
  0
LINE
  8
BOPEN_End
 10
5.565859
 20
-0.340906
 11
5.638064
 21
-0.310997
 39
0.006944
 62
1
  0
LINE
  8
BOPEN_End
 10
6.497206
 20
-0.476290
 11
6.497206
 21
-0.001290
 39
0.006944
 62
1
  0
LINE
  8
BOPEN_End
 10
6.497206
 20
-0.476290
 11
6.497206
 21
-0.001290
 39
0.006944
 62
1
  0
LINE
  8
BOPEN_End
 10
6.497206
 20
-0.001290
 11
6.497206
 21
-0.476290
 39
0.006944
 62
1
  0
LINE
  8
BOPEN_End
 10
6.497206
 20
-0.001290
 11
6.497206
 21
-0.476290
 39
0.006944
 62
1
  0
LINE
  8
BOPEN_End
 10
5.834707
 20
-0.476290
 11
5.834707
 21
-0.476290
 39
0.006944
 62
1
  0
LINE
  8
BOPEN_End
 10
6.165955
 20
-0.476290
 11
6.165955
 21
-0.476290
 39
0.006944
 62
1
  0
LINE
  8
BOPEN_End
 10
6.147210
 20
-0.476290
 11
5.834707
 21
-0.476290
 39
0.006944
 62
1
  0
LINE
  8
BOPEN_End
 10
6.165955
 20
-0.476290
 11
6.147210
 21
-0.476290
 39
0.006944
 62
1
  0
LINE
  8
BOPEN_End
 10
6.147210
 20
-0.476290
 11
6.165955
 21
-0.476290
 39
0.006944
 62
1
  0
LINE
  8
BOPEN_End
 10
5.834707
 20
-0.476290
 11
6.147210
 21
-0.476290
 39
0.006944
 62
1
  0
LINE
  8
BOPEN_End
 10
6.165955
 20
-0.476290
 11
6.165955
 21
-0.476290
 39
0.006944
 62
1
  0
LINE
  8
BOPEN_End
 10
6.165955
 20
-0.476290
 11
6.165955
 21
-0.476290
 39
0.006944
 62
1
  0
LINE
  8
BOPEN_End
 10
6.165955
 20
-0.345040
 11
6.165955
 21
-0.345040
 39
0.006944
 62
1
  0
LINE
  8
BOPEN_End
 10
5.834707
 20
-0.345040
 11
5.834707
 21
-0.345040
 39
0.006944
 62
1
  0
LINE
  8
BOPEN_End
 10
5.834707
 20
-0.370040
 11
5.834707
 21
-0.370040
 39
0.006944
 62
1
  0
LINE
  8
BOPEN_End
 10
6.147206
 20
-0.370040
 11
6.147206
 21
-0.370040
 39
0.006944
 62
1
  0
LINE
  8
BOPEN_End
 10
6.147206
 20
-0.370040
 11
6.147206
 21
-0.370040
 39
0.006944
 62
1
  0
LINE
  8
BOPEN_End
 10
5.834707
 20
-0.370040
 11
5.834707
 21
-0.370040
 39
0.006944
 62
1
  0
LINE
  8
BOPEN_End
 10
6.147206
 20
-0.370040
 11
5.834707
 21
-0.370040
 39
0.006944
 62
1
  0
LINE
  8
BOPEN_End
 10
6.165955
 20
-0.370040
 11
6.147206
 21
-0.370040
 39
0.006944
 62
1
  0
LINE
  8
BOPEN_End
 10
5.834707
 20
-0.370040
 11
5.834707
 21
-0.476290
 39
0.006944
 62
1
  0
LINE
  8
BOPEN_End
 10
6.165955
 20
-0.476289
 11
6.165955
 21
-0.370040
 39
0.006944
 62
1
  0
LINE
  8
BOPEN_End
 10
6.497206
 20
-0.476290
 11
6.497206
 21
-0.476290
 39
0.006944
 62
1
  0
LINE
  8
BOPEN_End
 10
6.478457
 20
-0.476290
 11
6.165955
 21
-0.476290
 39
0.006944
 62
1
  0
LINE
  8
BOPEN_End
 10
6.497206
 20
-0.476290
 11
6.478457
 21
-0.476290
 39
0.006944
 62
1
  0
LINE
  8
BOPEN_End
 10
6.478457
 20
-0.476290
 11
6.497206
 21
-0.476290
 39
0.006944
 62
1
  0
LINE
  8
BOPEN_End
 10
6.165955
 20
-0.476290
 11
6.478457
 21
-0.476290
 39
0.006944
 62
1
  0
LINE
  8
BOPEN_End
 10
6.497206
 20
-0.476290
 11
6.497206
 21
-0.476290
 39
0.006944
 62
1
  0
LINE
  8
BOPEN_End
 10
6.478457
 20
-0.476290
 11
6.478457
 21
-0.476290
 39
0.006944
 62
1
  0
LINE
  8
BOPEN_End
 10
6.478457
 20
-0.476290
 11
6.165955
 21
-0.476290
 39
0.006944
 62
1
  0
LINE
  8
BOPEN_End
 10
6.165955
 20
-0.476290
 11
6.478457
 21
-0.476290
 39
0.006944
 62
1
  0
LINE
  8
BOPEN_End
 10
6.478457
 20
-0.476290
 11
6.478457
 21
-0.476290
 39
0.006944
 62
1
  0
LINE
  8
BOPEN_End
 10
6.165955
 20
-2.976290
 11
6.165955
 21
-0.476290
 39
0.006944
 62
1
  0
LINE
  8
BOPEN_End
 10
6.165955
 20
-0.476290
 11
6.165955
 21
-2.976290
 39
0.006944
 62
1
  0
LINE
  8
BOPEN_End
 10
6.165955
 20
-2.976290
 11
6.165955
 21
-0.476289
 39
0.006944
 62
1
  0
LINE
  8
BOPEN_End
 10
6.478457
 20
-0.476290
 11
6.478457
 21
-2.976290
 39
0.006944
 62
1
  0
LINE
  8
BOPEN_End
 10
6.478457
 20
-2.976290
 11
6.478457
 21
-0.476290
 39
0.006944
 62
1
  0
LINE
  8
BOPEN_End
 10
6.165955
 20
-2.976290
 11
6.165955
 21
-2.976290
 39
0.006944
 62
1
  0
LINE
  8
BOPEN_End
 10
6.165955
 20
-2.976290
 11
6.165955
 21
-2.976290
 39
0.006944
 62
1
  0
LINE
  8
BOPEN_End
 10
6.165955
 20
-2.976290
 11
6.478457
 21
-2.976290
 39
0.006944
 62
1
  0
LINE
  8
BOPEN_End
 10
6.478457
 20
-2.976290
 11
6.478457
 21
-2.976290
 39
0.006944
 62
1
  0
LINE
  8
BOPEN_End
 10
6.478457
 20
-2.976290
 11
6.165955
 21
-2.976290
 39
0.006944
 62
1
  0
LINE
  8
BOPEN_End
 10
6.478457
 20
-2.976290
 11
6.478457
 21
-2.976290
 39
0.006944
 62
1
  0
LINE
  8
BOPEN_End
 10
4.978203
 20
-4.333666
 11
4.996224
 21
-4.290168
 39
0.006944
 62
1
  0
LINE
  8
BOPEN_End
 10
4.996224
 20
-4.290168
 11
4.978203
 21
-4.246669
 39
0.006944
 62
1
  0
LINE
  8
BOPEN_End
 10
4.978203
 20
-4.246669
 11
4.934704
 21
-4.228653
 39
0.006944
 62
1
  0
LINE
  8
BOPEN_End
 10
4.934704
 20
-4.228653
 11
4.891210
 21
-4.246669
 39
0.006944
 62
1
  0
LINE
  8
BOPEN_End
 10
4.891210
 20
-4.246669
 11
4.873189
 21
-4.290168
 39
0.006944
 62
1
  0
LINE
  8
BOPEN_End
 10
4.873189
 20
-4.290168
 11
4.891210
 21
-4.333666
 39
0.006944
 62
1
  0
LINE
  8
BOPEN_End
 10
4.891210
 20
-4.333666
 11
4.934704
 21
-4.351683
 39
0.006944
 62
1
  0
LINE
  8
BOPEN_End
 10
4.934704
 20
-4.351683
 11
4.978203
 21
-4.333666
 39
0.006944
 62
1
  0
LINE
  8
BOPEN_End
 10
4.996224
 20
-5.077570
 11
4.978203
 21
-5.034071
 39
0.006944
 62
1
  0
LINE
  8
BOPEN_End
 10
4.978203
 20
-5.034071
 11
4.934704
 21
-5.016054
 39
0.006944
 62
1
  0
LINE
  8
BOPEN_End
 10
4.934704
 20
-5.016054
 11
4.891210
 21
-5.034071
 39
0.006944
 62
1
  0
LINE
  8
BOPEN_End
 10
4.891210
 20
-5.034071
 11
4.873189
 21
-5.077570
 39
0.006944
 62
1
  0
LINE
  8
BOPEN_End
 10
4.978203
 20
-5.121068
 11
4.996224
 21
-5.077570
 39
0.006944
 62
1
  0
LINE
  8
BOPEN_End
 10
4.873189
 20
-5.077570
 11
4.891210
 21
-5.121068
 39
0.006944
 62
1
  0
LINE
  8
BOPEN_End
 10
4.891210
 20
-5.121068
 11
4.934704
 21
-5.139085
 39
0.006944
 62
1
  0
LINE
  8
BOPEN_End
 10
4.934704
 20
-5.139085
 11
4.978203
 21
-5.121068
 39
0.006944
 62
1
  0
LINE
  8
BOPEN_End
 10
4.978203
 20
-5.908469
 11
4.996224
 21
-5.864971
 39
0.006944
 62
1
  0
LINE
  8
BOPEN_End
 10
4.996224
 20
-5.864971
 11
4.978203
 21
-5.821474
 39
0.006944
 62
1
  0
LINE
  8
BOPEN_End
 10
4.978203
 20
-5.821474
 11
4.934704
 21
-5.803455
 39
0.006944
 62
1
  0
LINE
  8
BOPEN_End
 10
4.934704
 20
-5.803455
 11
4.891210
 21
-5.821474
 39
0.006944
 62
1
  0
LINE
  8
BOPEN_End
 10
4.891210
 20
-5.821474
 11
4.873189
 21
-5.864971
 39
0.006944
 62
1
  0
LINE
  8
BOPEN_End
 10
4.873189
 20
-5.864971
 11
4.891210
 21
-5.908469
 39
0.006944
 62
1
  0
LINE
  8
BOPEN_End
 10
4.891210
 20
-5.908469
 11
4.934704
 21
-5.926488
 39
0.006944
 62
1
  0
LINE
  8
BOPEN_End
 10
4.934704
 20
-5.926488
 11
4.978203
 21
-5.908469
 39
0.006944
 62
1
  0
LINE
  8
BOPEN_End
 10
5.834707
 20
-0.476290
 11
5.834707
 21
-10.901782
 39
0.006944
 62
1
  0
LINE
  8
BOPEN_End
 10
4.978203
 20
-6.695871
 11
4.996224
 21
-6.652373
 39
0.006944
 62
1
  0
LINE
  8
BOPEN_End
 10
4.996224
 20
-6.652373
 11
4.978203
 21
-6.608875
 39
0.006944
 62
1
  0
LINE
  8
BOPEN_End
 10
4.978203
 20
-6.608875
 11
4.934704
 21
-6.590858
 39
0.006944
 62
1
  0
LINE
  8
BOPEN_End
 10
4.934704
 20
-6.590858
 11
4.891210
 21
-6.608875
 39
0.006944
 62
1
  0
LINE
  8
BOPEN_End
 10
4.891210
 20
-6.608875
 11
4.873189
 21
-6.652373
 39
0.006944
 62
1
  0
LINE
  8
BOPEN_End
 10
4.873189
 20
-6.652373
 11
4.891210
 21
-6.695871
 39
0.006944
 62
1
  0
LINE
  8
BOPEN_End
 10
4.891210
 20
-6.695871
 11
4.934704
 21
-6.713889
 39
0.006944
 62
1
  0
LINE
  8
BOPEN_End
 10
4.934704
 20
-6.713889
 11
4.978203
 21
-6.695871
 39
0.006944
 62
1
  0
LINE
  8
BOPEN_End
 10
4.978203
 20
-7.483273
 11
4.996224
 21
-7.439774
 39
0.006944
 62
1
  0
LINE
  8
BOPEN_End
 10
4.996224
 20
-7.439774
 11
4.978203
 21
-7.396276
 39
0.006944
 62
1
  0
LINE
  8
BOPEN_End
 10
4.978203
 20
-7.396276
 11
4.934704
 21
-7.378259
 39
0.006944
 62
1
  0
LINE
  8
BOPEN_End
 10
4.934704
 20
-7.378259
 11
4.891210
 21
-7.396276
 39
0.006944
 62
1
  0
LINE
  8
BOPEN_End
 10
4.891210
 20
-7.396276
 11
4.873189
 21
-7.439774
 39
0.006944
 62
1
  0
LINE
  8
BOPEN_End
 10
4.873189
 20
-7.439774
 11
4.891210
 21
-7.483273
 39
0.006944
 62
1
  0
LINE
  8
BOPEN_End
 10
4.891210
 20
-7.483273
 11
4.934704
 21
-7.501290
 39
0.006944
 62
1
  0
LINE
  8
BOPEN_End
 10
4.934704
 20
-7.501290
 11
4.978203
 21
-7.483273
 39
0.006944
 62
1
  0
LINE
  8
BOPEN_End
 10
4.978203
 20
-8.270674
 11
4.996224
 21
-8.227176
 39
0.006944
 62
1
  0
LINE
  8
BOPEN_End
 10
4.996224
 20
-8.227176
 11
4.978203
 21
-8.183678
 39
0.006944
 62
1
  0
LINE
  8
BOPEN_End
 10
4.978203
 20
-8.183678
 11
4.934704
 21
-8.165660
 39
0.006944
 62
1
  0
LINE
  8
BOPEN_End
 10
4.934704
 20
-8.165660
 11
4.891210
 21
-8.183678
 39
0.006944
 62
1
  0
LINE
  8
BOPEN_End
 10
4.891210
 20
-8.183678
 11
4.873189
 21
-8.227176
 39
0.006944
 62
1
  0
LINE
  8
BOPEN_End
 10
4.873189
 20
-8.227176
 11
4.891210
 21
-8.270674
 39
0.006944
 62
1
  0
LINE
  8
BOPEN_End
 10
4.891210
 20
-8.270674
 11
4.934704
 21
-8.288692
 39
0.006944
 62
1
  0
LINE
  8
BOPEN_End
 10
4.934704
 20
-8.288692
 11
4.978203
 21
-8.270674
 39
0.006944
 62
1
  0
LINE
  8
BOPEN_End
 10
4.978203
 20
-8.971080
 11
4.934704
 21
-8.953061
 39
0.006944
 62
1
  0
LINE
  8
BOPEN_End
 10
4.934704
 20
-8.953061
 11
4.891210
 21
-8.971080
 39
0.006944
 62
1
  0
LINE
  8
BOPEN_End
 10
4.978203
 20
-9.058075
 11
4.996224
 21
-9.014578
 39
0.006944
 62
1
  0
LINE
  8
BOPEN_End
 10
4.996224
 20
-9.014578
 11
4.978203
 21
-8.971080
 39
0.006944
 62
1
  0
LINE
  8
BOPEN_End
 10
4.891210
 20
-8.971080
 11
4.873189
 21
-9.014578
 39
0.006944
 62
1
  0
LINE
  8
BOPEN_End
 10
4.873189
 20
-9.014578
 11
4.891210
 21
-9.058075
 39
0.006944
 62
1
  0
LINE
  8
BOPEN_End
 10
4.891210
 20
-9.058075
 11
4.934704
 21
-9.076093
 39
0.006944
 62
1
  0
LINE
  8
BOPEN_End
 10
4.934704
 20
-9.076093
 11
4.978203
 21
-9.058075
 39
0.006944
 62
1
  0
LINE
  8
BOPEN_End
 10
6.497206
 20
-18.588789
 11
6.497206
 21
-0.476290
 39
0.006944
 62
1
  0
LINE
  8
BOPEN_End
 10
6.497206
 20
-0.476290
 11
6.497206
 21
-18.588789
 39
0.006944
 62
1
  0
LINE
  8
BOPEN_End
 10
-6.749415
 20
-9.758481
 11
-6.767435
 21
-9.801978
 39
0.006944
 62
1
  0
LINE
  8
BOPEN_End
 10
-6.644402
 20
-9.801978
 11
-6.662421
 21
-9.758481
 39
0.006944
 62
1
  0
LINE
  8
BOPEN_End
 10
-6.662421
 20
-9.758481
 11
-6.705918
 21
-9.740463
 39
0.006944
 62
1
  0
LINE
  8
BOPEN_End
 10
-6.705918
 20
-9.740463
 11
-6.749415
 21
-9.758481
 39
0.006944
 62
1
  0
LINE
  8
BOPEN_End
 10
-6.767435
 20
-9.801978
 11
-6.749415
 21
-9.845477
 39
0.006944
 62
1
  0
LINE
  8
BOPEN_End
 10
-6.662421
 20
-9.845477
 11
-6.644402
 21
-9.801978
 39
0.006944
 62
1
  0
LINE
  8
BOPEN_End
 10
-6.749415
 20
-9.845477
 11
-6.705918
 21
-9.863495
 39
0.006944
 62
1
  0
LINE
  8
BOPEN_End
 10
-6.705918
 20
-9.863495
 11
-6.662421
 21
-9.845477
 39
0.006944
 62
1
  0
LINE
  8
BOPEN_End
 10
-6.549668
 20
-10.436158
 11
-7.018418
 21
-10.436158
 39
0.006944
 62
1
  0
LINE
  8
BOPEN_End
 10
-7.018418
 20
-10.436158
 11
-7.018418
 21
-10.436158
 39
0.006944
 62
1
  0
LINE
  8
BOPEN_End
 10
-7.018418
 20
-10.436158
 11
-6.549668
 21
-10.436158
 39
0.006944
 62
1
  0
LINE
  8
BOPEN_End
 10
-7.018418
 20
-10.436158
 11
-7.018418
 21
-10.436158
 39
0.006944
 62
1
  0
LINE
  8
BOPEN_End
 10
-6.549668
 20
-10.436158
 11
-7.018418
 21
-10.436158
 39
0.006944
 62
1
  0
LINE
  8
BOPEN_End
 10
-6.549668
 20
-10.436158
 11
-6.549668
 21
-10.436158
 39
0.006944
 62
1
  0
LINE
  8
BOPEN_End
 10
-6.549668
 20
-10.436158
 11
-6.549668
 21
-10.436158
 39
0.006944
 62
1
  0
LINE
  8
BOPEN_End
 10
-7.630918
 20
-10.901782
 11
-7.630918
 21
-10.901782
 39
0.006944
 62
1
  0
LINE
  8
BOPEN_End
 10
-7.630920
 20
-10.901782
 11
-7.643418
 21
-10.901782
 39
0.006944
 62
1
  0
LINE
  8
BOPEN_End
 10
-7.630918
 20
-10.901782
 11
-7.630920
 21
-10.901782
 39
0.006944
 62
1
  0
LINE
  8
BOPEN_End
 10
-7.643418
 20
-10.901782
 11
-7.643418
 21
-10.901782
 39
0.006944
 62
1
  0
LINE
  8
BOPEN_End
 10
-7.643418
 20
-10.901782
 11
-7.630918
 21
-10.901782
 39
0.006944
 62
1
  0
LINE
  8
BOPEN_End
 10
-7.630918
 20
-10.901782
 11
-7.630918
 21
-10.901782
 39
0.006944
 62
1
  0
LINE
  8
BOPEN_End
 10
-7.643418
 20
-10.901782
 11
-7.643418
 21
-10.901782
 39
0.006944
 62
1
  0
LINE
  8
BOPEN_End
 10
-7.630918
 20
-10.901782
 11
-7.630918
 21
-10.901782
 39
0.006944
 62
1
  0
LINE
  8
BOPEN_End
 10
-7.630918
 20
-10.901782
 11
-7.018418
 21
-10.901782
 39
0.006944
 62
1
  0
LINE
  8
BOPEN_End
 10
-7.018418
 20
-10.901782
 11
-7.630918
 21
-10.901782
 39
0.006944
 62
1
  0
LINE
  8
BOPEN_End
 10
-7.630918
 20
-10.901782
 11
-7.630918
 21
-10.901782
 39
0.006944
 62
1
  0
LINE
  8
BOPEN_End
 10
-7.630918
 20
-10.901782
 11
-7.630918
 21
-11.376783
 39
0.006944
 62
1
  0
LINE
  8
BOPEN_End
 10
-7.643418
 20
-11.376783
 11
-7.643418
 21
-10.901782
 39
0.006944
 62
1
  0
LINE
  8
BOPEN_End
 10
-7.630918
 20
-11.376783
 11
-7.630918
 21
-10.901782
 39
0.006944
 62
1
  0
LINE
  8
BOPEN_End
 10
-7.643418
 20
-10.901782
 11
-7.643418
 21
-11.376783
 39
0.006944
 62
1
  0
LINE
  8
BOPEN_End
 10
-7.630918
 20
-10.901782
 11
-7.630918
 21
-11.376783
 39
0.006944
 62
1
  0
LINE
  8
BOPEN_End
 10
-7.630918
 20
-11.376783
 11
-7.630918
 21
-10.901782
 39
0.006944
 62
1
  0
LINE
  8
BOPEN_End
 10
-7.018418
 20
-10.436158
 11
-7.018418
 21
-10.901782
 39
0.006944
 62
1
  0
LINE
  8
BOPEN_End
 10
-7.018418
 20
-10.901782
 11
-7.018418
 21
-10.436158
 39
0.006944
 62
1
  0
LINE
  8
BOPEN_End
 10
-7.018418
 20
-10.436158
 11
-7.018418
 21
-10.901782
 39
0.006944
 62
1
  0
LINE
  8
BOPEN_End
 10
-7.018418
 20
-10.901782
 11
-6.549668
 21
-10.901782
 39
0.006944
 62
1
  0
LINE
  8
BOPEN_End
 10
-6.549668
 20
-10.901782
 11
-7.018418
 21
-10.901782
 39
0.006944
 62
1
  0
LINE
  8
BOPEN_End
 10
-6.549668
 20
-10.436158
 11
-6.549668
 21
-10.901782
 39
0.006944
 62
1
  0
LINE
  8
BOPEN_End
 10
-6.549668
 20
-10.901782
 11
-6.549668
 21
-10.436158
 39
0.006944
 62
1
  0
LINE
  8
BOPEN_End
 10
-7.018418
 20
-11.376783
 11
-7.018418
 21
-10.901782
 39
0.006944
 62
1
  0
LINE
  8
BOPEN_End
 10
-7.018418
 20
-10.901782
 11
-7.018418
 21
-11.376783
 39
0.006944
 62
1
  0
LINE
  8
BOPEN_End
 10
-6.549668
 20
-10.901782
 11
-6.549668
 21
-11.376783
 39
0.006944
 62
1
  0
LINE
  8
BOPEN_End
 10
-6.549668
 20
-11.376783
 11
-6.549668
 21
-10.901782
 39
0.006944
 62
1
  0
LINE
  8
BOPEN_End
 10
-7.643418
 20
-11.376783
 11
-7.643418
 21
-11.376783
 39
0.006944
 62
1
  0
LINE
  8
BOPEN_End
 10
-7.643418
 20
-11.376783
 11
-7.630918
 21
-11.376783
 39
0.006944
 62
1
  0
LINE
  8
BOPEN_End
 10
-7.630918
 20
-11.376783
 11
-7.630918
 21
-11.376783
 39
0.006944
 62
1
  0
LINE
  8
BOPEN_End
 10
-7.630918
 20
-11.376783
 11
-7.643418
 21
-11.376783
 39
0.006944
 62
1
  0
LINE
  8
BOPEN_End
 10
-7.630918
 20
-11.376783
 11
-7.630918
 21
-11.376783
 39
0.006944
 62
1
  0
LINE
  8
BOPEN_End
 10
-7.643418
 20
-11.376783
 11
-7.643418
 21
-11.376783
 39
0.006944
 62
1
  0
LINE
  8
BOPEN_End
 10
-7.630918
 20
-11.376783
 11
-7.630918
 21
-11.376783
 39
0.006944
 62
1
  0
LINE
  8
BOPEN_End
 10
-7.018418
 20
-11.376783
 11
-7.630918
 21
-11.376783
 39
0.006944
 62
1
  0
LINE
  8
BOPEN_End
 10
-7.630918
 20
-11.376783
 11
-7.630918
 21
-11.376783
 39
0.006944
 62
1
  0
LINE
  8
BOPEN_End
 10
-7.630918
 20
-11.376783
 11
-7.018418
 21
-11.376783
 39
0.006944
 62
1
  0
LINE
  8
BOPEN_End
 10
-6.549668
 20
-11.376783
 11
-7.018418
 21
-11.376783
 39
0.006944
 62
1
  0
LINE
  8
BOPEN_End
 10
-7.018418
 20
-11.376783
 11
-6.549668
 21
-11.376783
 39
0.006944
 62
1
  0
LINE
  8
BOPEN_End
 10
-7.018418
 20
-11.376783
 11
-7.018418
 21
-11.842407
 39
0.006944
 62
1
  0
LINE
  8
BOPEN_End
 10
-7.018418
 20
-11.842407
 11
-7.018418
 21
-11.376783
 39
0.006944
 62
1
  0
LINE
  8
BOPEN_End
 10
-7.018418
 20
-11.376783
 11
-7.018418
 21
-11.842407
 39
0.006944
 62
1
  0
LINE
  8
BOPEN_End
 10
-6.549668
 20
-11.376783
 11
-6.549668
 21
-11.842407
 39
0.006944
 62
1
  0
LINE
  8
BOPEN_End
 10
-6.549668
 20
-11.842407
 11
-6.549668
 21
-11.376783
 39
0.006944
 62
1
  0
LINE
  8
BOPEN_End
 10
-6.549668
 20
-10.901782
 11
4.700331
 21
-10.901782
 39
0.006944
 62
1
  0
LINE
  8
BOPEN_End
 10
4.700331
 20
-10.901782
 11
-6.549668
 21
-10.901782
 39
0.006944
 62
1
  0
LINE
  8
BOPEN_End
 10
4.700331
 20
-11.376783
 11
-6.549668
 21
-11.376783
 39
0.006944
 62
1
  0
LINE
  8
BOPEN_End
 10
-6.549668
 20
-11.376783
 11
4.700331
 21
-11.376783
 39
0.006944
 62
1
  0
LINE
  8
BOPEN_End
 10
-7.018418
 20
-11.842407
 11
-7.018418
 21
-11.842407
 39
0.006944
 62
1
  0
LINE
  8
BOPEN_End
 10
-6.549668
 20
-11.842407
 11
-7.018418
 21
-11.842407
 39
0.006944
 62
1
  0
LINE
  8
BOPEN_End
 10
-7.018418
 20
-11.842407
 11
-7.018418
 21
-11.842407
 39
0.006944
 62
1
  0
LINE
  8
BOPEN_End
 10
-7.018418
 20
-11.842407
 11
-6.549668
 21
-11.842407
 39
0.006944
 62
1
  0
LINE
  8
BOPEN_End
 10
-6.749415
 20
-12.120684
 11
-6.767435
 21
-12.164183
 39
0.006944
 62
1
  0
LINE
  8
BOPEN_End
 10
-6.767435
 20
-12.164183
 11
-6.749415
 21
-12.207681
 39
0.006944
 62
1
  0
LINE
  8
BOPEN_End
 10
-6.662421
 20
-12.207681
 11
-6.644402
 21
-12.164183
 39
0.006944
 62
1
  0
LINE
  8
BOPEN_End
 10
-6.644402
 20
-12.164183
 11
-6.662421
 21
-12.120684
 39
0.006944
 62
1
  0
LINE
  8
BOPEN_End
 10
-6.662421
 20
-12.120684
 11
-6.705918
 21
-12.102668
 39
0.006944
 62
1
  0
LINE
  8
BOPEN_End
 10
-6.705918
 20
-12.102668
 11
-6.749415
 21
-12.120684
 39
0.006944
 62
1
  0
LINE
  8
BOPEN_End
 10
-6.749415
 20
-12.207681
 11
-6.705918
 21
-12.225700
 39
0.006944
 62
1
  0
LINE
  8
BOPEN_End
 10
-6.705918
 20
-12.225700
 11
-6.662421
 21
-12.207681
 39
0.006944
 62
1
  0
LINE
  8
BOPEN_End
 10
-6.749415
 20
-12.908087
 11
-6.767435
 21
-12.951585
 39
0.006944
 62
1
  0
LINE
  8
BOPEN_End
 10
-6.767435
 20
-12.951585
 11
-6.749415
 21
-12.995084
 39
0.006944
 62
1
  0
LINE
  8
BOPEN_End
 10
-6.662421
 20
-12.995084
 11
-6.644402
 21
-12.951585
 39
0.006944
 62
1
  0
LINE
  8
BOPEN_End
 10
-6.644402
 20
-12.951585
 11
-6.662421
 21
-12.908087
 39
0.006944
 62
1
  0
LINE
  8
BOPEN_End
 10
-6.662421
 20
-12.908087
 11
-6.705918
 21
-12.890070
 39
0.006944
 62
1
  0
LINE
  8
BOPEN_End
 10
-6.705918
 20
-12.890070
 11
-6.749415
 21
-12.908087
 39
0.006944
 62
1
  0
LINE
  8
BOPEN_End
 10
-6.749415
 20
-12.995084
 11
-6.705918
 21
-13.013100
 39
0.006944
 62
1
  0
LINE
  8
BOPEN_End
 10
-6.705918
 20
-13.013100
 11
-6.662421
 21
-12.995084
 39
0.006944
 62
1
  0
LINE
  8
BOPEN_End
 10
-6.749415
 20
-13.695489
 11
-6.767435
 21
-13.738985
 39
0.006944
 62
1
  0
LINE
  8
BOPEN_End
 10
-6.644402
 20
-13.738985
 11
-6.662421
 21
-13.695489
 39
0.006944
 62
1
  0
LINE
  8
BOPEN_End
 10
-6.662421
 20
-13.695489
 11
-6.705918
 21
-13.677470
 39
0.006944
 62
1
  0
LINE
  8
BOPEN_End
 10
-6.705918
 20
-13.677470
 11
-6.749415
 21
-13.695489
 39
0.006944
 62
1
  0
LINE
  8
BOPEN_End
 10
-6.767435
 20
-13.738985
 11
-6.749415
 21
-13.782484
 39
0.006944
 62
1
  0
LINE
  8
BOPEN_End
 10
-6.662421
 20
-13.782484
 11
-6.644402
 21
-13.738985
 39
0.006944
 62
1
  0
LINE
  8
BOPEN_End
 10
-6.749415
 20
-13.782484
 11
-6.705918
 21
-13.800503
 39
0.006944
 62
1
  0
LINE
  8
BOPEN_End
 10
-6.705918
 20
-13.800503
 11
-6.662421
 21
-13.782484
 39
0.006944
 62
1
  0
LINE
  8
BOPEN_End
 10
-6.749415
 20
-14.482889
 11
-6.767435
 21
-14.526388
 39
0.006944
 62
1
  0
LINE
  8
BOPEN_End
 10
-6.767435
 20
-14.526388
 11
-6.749415
 21
-14.569886
 39
0.006944
 62
1
  0
LINE
  8
BOPEN_End
 10
-6.662421
 20
-14.569886
 11
-6.644402
 21
-14.526388
 39
0.006944
 62
1
  0
LINE
  8
BOPEN_End
 10
-6.644402
 20
-14.526388
 11
-6.662421
 21
-14.482889
 39
0.006944
 62
1
  0
LINE
  8
BOPEN_End
 10
-6.662421
 20
-14.482889
 11
-6.705918
 21
-14.464873
 39
0.006944
 62
1
  0
LINE
  8
BOPEN_End
 10
-6.705918
 20
-14.464873
 11
-6.749415
 21
-14.482889
 39
0.006944
 62
1
  0
LINE
  8
BOPEN_End
 10
-6.749415
 20
-14.569886
 11
-6.705918
 21
-14.587903
 39
0.006944
 62
1
  0
LINE
  8
BOPEN_End
 10
-6.705918
 20
-14.587903
 11
-6.662421
 21
-14.569886
 39
0.006944
 62
1
  0
LINE
  8
BOPEN_End
 10
-6.749415
 20
-15.270291
 11
-6.767435
 21
-15.313790
 39
0.006944
 62
1
  0
LINE
  8
BOPEN_End
 10
-6.767435
 20
-15.313790
 11
-6.749415
 21
-15.357288
 39
0.006944
 62
1
  0
LINE
  8
BOPEN_End
 10
-6.662421
 20
-15.357288
 11
-6.644402
 21
-15.313790
 39
0.006944
 62
1
  0
LINE
  8
BOPEN_End
 10
-6.644402
 20
-15.313790
 11
-6.662421
 21
-15.270291
 39
0.006944
 62
1
  0
LINE
  8
BOPEN_End
 10
-6.662421
 20
-15.270291
 11
-6.705918
 21
-15.252275
 39
0.006944
 62
1
  0
LINE
  8
BOPEN_End
 10
-6.705918
 20
-15.252275
 11
-6.749415
 21
-15.270291
 39
0.006944
 62
1
  0
LINE
  8
BOPEN_End
 10
-6.749415
 20
-15.357288
 11
-6.705918
 21
-15.375305
 39
0.006944
 62
1
  0
LINE
  8
BOPEN_End
 10
-6.705918
 20
-15.375305
 11
-6.662421
 21
-15.357288
 39
0.006944
 62
1
  0
LINE
  8
BOPEN_End
 10
-7.955918
 20
-18.588789
 11
-7.943418
 21
-18.588789
 39
0.006944
 62
1
  0
LINE
  8
BOPEN_End
 10
-7.955918
 20
-18.588789
 11
-7.955918
 21
-18.588789
 39
0.006944
 62
1
  0
LINE
  8
BOPEN_End
 10
-7.943418
 20
-18.588789
 11
-7.943418
 21
-18.588789
 39
0.006944
 62
1
  0
LINE
  8
BOPEN_End
 10
-7.943419
 20
-18.588789
 11
-7.955918
 21
-18.588789
 39
0.006944
 62
1
  0
LINE
  8
BOPEN_End
 10
-7.943418
 20
-18.588789
 11
-7.943419
 21
-18.588789
 39
0.006944
 62
1
  0
LINE
  8
BOPEN_End
 10
-7.943418
 20
-18.588789
 11
-7.943418
 21
-18.588789
 39
0.006944
 62
1
  0
LINE
  8
BOPEN_End
 10
-7.955918
 20
-18.588789
 11
-7.955918
 21
-18.588789
 39
0.006944
 62
1
  0
LINE
  8
BOPEN_End
 10
-7.943418
 20
-18.588789
 11
-7.943418
 21
-18.588789
 39
0.006944
 62
1
  0
LINE
  8
BOPEN_End
 10
-7.943418
 20
-18.588789
 11
-7.943418
 21
-18.588789
 39
0.006944
 62
1
  0
LINE
  8
BOPEN_End
 10
-7.634425
 20
-18.754082
 11
-7.562218
 21
-18.724174
 39
0.006944
 62
1
  0
LINE
  8
BOPEN_End
 10
-7.562218
 20
-18.724174
 11
-7.490010
 21
-18.754082
 39
0.006944
 62
1
  0
LINE
  8
BOPEN_End
 10
-7.490010
 20
-18.754082
 11
-7.562218
 21
-18.724174
 39
0.006944
 62
1
  0
LINE
  8
BOPEN_End
 10
-7.562218
 20
-18.724174
 11
-7.634425
 21
-18.754082
 39
0.006944
 62
1
  0
LINE
  8
BOPEN_End
 10
-7.943418
 20
-18.588789
 11
-7.943418
 21
-19.063789
 39
0.006944
 62
1
  0
LINE
  8
BOPEN_End
 10
-7.955918
 20
-19.063789
 11
-7.955918
 21
-18.588789
 39
0.006944
 62
1
  0
LINE
  8
BOPEN_End
 10
-7.943418
 20
-18.588789
 11
-7.943418
 21
-19.063789
 39
0.006944
 62
1
  0
LINE
  8
BOPEN_End
 10
-7.943418
 20
-19.063789
 11
-7.943418
 21
-18.588789
 39
0.006944
 62
1
  0
LINE
  8
BOPEN_End
 10
-7.955918
 20
-18.588789
 11
-7.955918
 21
-19.063789
 39
0.006944
 62
1
  0
LINE
  8
BOPEN_End
 10
-7.943418
 20
-18.588789
 11
-7.943418
 21
-19.063789
 39
0.006944
 62
1
  0
LINE
  8
BOPEN_End
 10
-7.943418
 20
-19.063789
 11
-7.943418
 21
-18.588789
 39
0.006944
 62
1
  0
LINE
  8
BOPEN_End
 10
-7.955918
 20
-18.588789
 11
-7.955918
 21
-19.063789
 39
0.006944
 62
1
  0
LINE
  8
BOPEN_End
 10
-7.943418
 20
-19.063789
 11
-7.943418
 21
-18.588789
 39
0.006944
 62
1
  0
LINE
  8
BOPEN_End
 10
-7.943418
 20
-18.588789
 11
-7.943418
 21
-19.063789
 39
0.006944
 62
1
  0
LINE
  8
BOPEN_End
 10
-7.955918
 20
-18.588789
 11
-7.955918
 21
-19.063789
 39
0.006944
 62
1
  0
LINE
  8
BOPEN_End
 10
-7.955918
 20
-19.063789
 11
-7.955918
 21
-18.588789
 39
0.006944
 62
1
  0
LINE
  8
BOPEN_End
 10
-7.943418
 20
-19.063789
 11
-7.943418
 21
-18.588789
 39
0.006944
 62
1
  0
LINE
  8
BOPEN_End
 10
-7.490010
 20
-18.754082
 11
-7.460102
 21
-18.826290
 39
0.006944
 62
1
  0
LINE
  8
BOPEN_End
 10
-7.460102
 20
-18.826290
 11
-7.490010
 21
-18.898496
 39
0.006944
 62
1
  0
LINE
  8
BOPEN_End
 10
-7.490010
 20
-18.898496
 11
-7.562218
 21
-18.928406
 39
0.006944
 62
1
  0
LINE
  8
BOPEN_End
 10
-7.562218
 20
-18.928406
 11
-7.634425
 21
-18.898496
 39
0.006944
 62
1
  0
LINE
  8
BOPEN_End
 10
-7.634425
 20
-18.898496
 11
-7.664334
 21
-18.826290
 39
0.006944
 62
1
  0
LINE
  8
BOPEN_End
 10
-7.664334
 20
-18.826290
 11
-7.634425
 21
-18.754082
 39
0.006944
 62
1
  0
LINE
  8
BOPEN_End
 10
-7.634425
 20
-18.898496
 11
-7.562218
 21
-18.928406
 39
0.006944
 62
1
  0
LINE
  8
BOPEN_End
 10
-7.562218
 20
-18.928406
 11
-7.490010
 21
-18.898496
 39
0.006944
 62
1
  0
LINE
  8
BOPEN_End
 10
-7.490010
 20
-18.898496
 11
-7.460102
 21
-18.826290
 39
0.006944
 62
1
  0
LINE
  8
BOPEN_End
 10
-7.460102
 20
-18.826290
 11
-7.490010
 21
-18.754082
 39
0.006944
 62
1
  0
LINE
  8
BOPEN_End
 10
-7.634425
 20
-18.754082
 11
-7.664334
 21
-18.826290
 39
0.006944
 62
1
  0
LINE
  8
BOPEN_End
 10
-7.664334
 20
-18.826290
 11
-7.634425
 21
-18.898496
 39
0.006944
 62
1
  0
LINE
  8
BOPEN_End
 10
-6.847024
 20
-18.754082
 11
-6.774816
 21
-18.724174
 39
0.006944
 62
1
  0
LINE
  8
BOPEN_End
 10
-6.774816
 20
-18.724174
 11
-6.847024
 21
-18.754082
 39
0.006944
 62
1
  0
LINE
  8
BOPEN_End
 10
-6.774816
 20
-18.724174
 11
-6.702609
 21
-18.754082
 39
0.006944
 62
1
  0
LINE
  8
BOPEN_End
 10
-6.702609
 20
-18.754082
 11
-6.774816
 21
-18.724174
 39
0.006944
 62
1
  0
LINE
  8
BOPEN_End
 10
-6.774816
 20
-18.928406
 11
-6.847024
 21
-18.898496
 39
0.006944
 62
1
  0
LINE
  8
BOPEN_End
 10
-6.847024
 20
-18.898496
 11
-6.876931
 21
-18.826290
 39
0.006944
 62
1
  0
LINE
  8
BOPEN_End
 10
-6.876931
 20
-18.826290
 11
-6.847024
 21
-18.754082
 39
0.006944
 62
1
  0
LINE
  8
BOPEN_End
 10
-6.847024
 20
-18.898496
 11
-6.774816
 21
-18.928406
 39
0.006944
 62
1
  0
LINE
  8
BOPEN_End
 10
-6.847024
 20
-18.754082
 11
-6.876931
 21
-18.826290
 39
0.006944
 62
1
  0
LINE
  8
BOPEN_End
 10
-6.876931
 20
-18.826290
 11
-6.847024
 21
-18.898496
 39
0.006944
 62
1
  0
LINE
  8
BOPEN_End
 10
-6.702609
 20
-18.754082
 11
-6.672699
 21
-18.826290
 39
0.006944
 62
1
  0
LINE
  8
BOPEN_End
 10
-6.672699
 20
-18.826290
 11
-6.702609
 21
-18.898496
 39
0.006944
 62
1
  0
LINE
  8
BOPEN_End
 10
-6.702609
 20
-18.898496
 11
-6.774816
 21
-18.928406
 39
0.006944
 62
1
  0
LINE
  8
BOPEN_End
 10
-6.774816
 20
-18.928406
 11
-6.702609
 21
-18.898496
 39
0.006944
 62
1
  0
LINE
  8
BOPEN_End
 10
-6.702609
 20
-18.898496
 11
-6.672699
 21
-18.826290
 39
0.006944
 62
1
  0
LINE
  8
BOPEN_End
 10
-6.672699
 20
-18.826290
 11
-6.702609
 21
-18.754082
 39
0.006944
 62
1
  0
LINE
  8
BOPEN_End
 10
-7.943418
 20
-19.063789
 11
-7.943418
 21
-19.063789
 39
0.006944
 62
1
  0
LINE
  8
BOPEN_End
 10
-7.955918
 20
-19.063789
 11
-7.955918
 21
-19.063789
 39
0.006944
 62
1
  0
LINE
  8
BOPEN_End
 10
-7.955918
 20
-19.063789
 11
-7.943418
 21
-19.063789
 39
0.006944
 62
1
  0
LINE
  8
BOPEN_End
 10
-7.943418
 20
-19.063789
 11
-7.955918
 21
-19.063789
 39
0.006944
 62
1
  0
LINE
  8
BOPEN_End
 10
-7.943418
 20
-19.063789
 11
-7.943418
 21
-19.063789
 39
0.006944
 62
1
  0
LINE
  8
BOPEN_End
 10
-7.955918
 20
-19.063789
 11
-7.955918
 21
-19.063789
 39
0.006944
 62
1
  0
LINE
  8
BOPEN_End
 10
-7.943418
 20
-19.063789
 11
-7.943418
 21
-19.063789
 39
0.006944
 62
1
  0
LINE
  8
BOPEN_End
 10
-7.943418
 20
-19.063789
 11
-7.943418
 21
-19.063789
 39
0.006944
 62
1
  0
LINE
  8
BOPEN_End
 10
-7.955918
 20
-19.063789
 11
-7.943418
 21
-19.063789
 39
0.006944
 62
1
  0
LINE
  8
BOPEN_End
 10
-7.943418
 20
-19.063789
 11
-7.955918
 21
-19.063789
 39
0.006944
 62
1
  0
LINE
  8
BOPEN_End
 10
-7.955918
 20
-19.063789
 11
-7.955918
 21
-19.063789
 39
0.006944
 62
1
  0
LINE
  8
BOPEN_End
 10
-7.955918
 20
-19.063789
 11
-7.955918
 21
-19.063789
 39
0.006944
 62
1
  0
LINE
  8
BOPEN_End
 10
-4.484818
 20
-18.754082
 11
-4.412611
 21
-18.724174
 39
0.006944
 62
1
  0
LINE
  8
BOPEN_End
 10
-4.412611
 20
-18.724174
 11
-4.484818
 21
-18.754082
 39
0.006944
 62
1
  0
LINE
  8
BOPEN_End
 10
-4.412611
 20
-18.928406
 11
-4.484818
 21
-18.898496
 39
0.006944
 62
1
  0
LINE
  8
BOPEN_End
 10
-4.484818
 20
-18.898496
 11
-4.514726
 21
-18.826290
 39
0.006944
 62
1
  0
LINE
  8
BOPEN_End
 10
-4.514726
 20
-18.826290
 11
-4.484818
 21
-18.754082
 39
0.006944
 62
1
  0
LINE
  8
BOPEN_End
 10
-4.484818
 20
-18.898496
 11
-4.412611
 21
-18.928406
 39
0.006944
 62
1
  0
LINE
  8
BOPEN_End
 10
-4.484818
 20
-18.754082
 11
-4.514726
 21
-18.826290
 39
0.006944
 62
1
  0
LINE
  8
BOPEN_End
 10
-4.514726
 20
-18.826290
 11
-4.484818
 21
-18.898496
 39
0.006944
 62
1
  0
LINE
  8
BOPEN_End
 10
-4.412611
 20
-18.724174
 11
-4.340403
 21
-18.754082
 39
0.006944
 62
1
  0
LINE
  8
BOPEN_End
 10
-4.340403
 20
-18.754082
 11
-4.412611
 21
-18.724174
 39
0.006944
 62
1
  0
LINE
  8
BOPEN_End
 10
-4.340403
 20
-18.754082
 11
-4.310495
 21
-18.826290
 39
0.006944
 62
1
  0
LINE
  8
BOPEN_End
 10
-4.310495
 20
-18.826290
 11
-4.340403
 21
-18.898496
 39
0.006944
 62
1
  0
LINE
  8
BOPEN_End
 10
-4.340403
 20
-18.898496
 11
-4.412611
 21
-18.928406
 39
0.006944
 62
1
  0
LINE
  8
BOPEN_End
 10
-4.412611
 20
-18.928406
 11
-4.340403
 21
-18.898496
 39
0.006944
 62
1
  0
LINE
  8
BOPEN_End
 10
-4.340403
 20
-18.898496
 11
-4.310495
 21
-18.826290
 39
0.006944
 62
1
  0
LINE
  8
BOPEN_End
 10
-4.310495
 20
-18.826290
 11
-4.340403
 21
-18.754082
 39
0.006944
 62
1
  0
LINE
  8
BOPEN_End
 10
-2.122614
 20
-18.754082
 11
-2.050407
 21
-18.724174
 39
0.006944
 62
1
  0
LINE
  8
BOPEN_End
 10
-2.050407
 20
-18.724174
 11
-1.978200
 21
-18.754082
 39
0.006944
 62
1
  0
LINE
  8
BOPEN_End
 10
-1.978200
 20
-18.754082
 11
-2.050407
 21
-18.724174
 39
0.006944
 62
1
  0
LINE
  8
BOPEN_End
 10
-2.050407
 20
-18.724174
 11
-2.122614
 21
-18.754082
 39
0.006944
 62
1
  0
LINE
  8
BOPEN_End
 10
-2.122614
 20
-18.898496
 11
-2.152523
 21
-18.826290
 39
0.006944
 62
1
  0
LINE
  8
BOPEN_End
 10
-2.152523
 20
-18.826290
 11
-2.122614
 21
-18.754082
 39
0.006944
 62
1
  0
LINE
  8
BOPEN_End
 10
-2.122614
 20
-18.754082
 11
-2.152523
 21
-18.826290
 39
0.006944
 62
1
  0
LINE
  8
BOPEN_End
 10
-2.152523
 20
-18.826290
 11
-2.122614
 21
-18.898496
 39
0.006944
 62
1
  0
LINE
  8
BOPEN_End
 10
-1.978200
 20
-18.754082
 11
-1.948291
 21
-18.826290
 39
0.006944
 62
1
  0
LINE
  8
BOPEN_End
 10
-1.948291
 20
-18.826290
 11
-1.978200
 21
-18.898496
 39
0.006944
 62
1
  0
LINE
  8
BOPEN_End
 10
-1.978200
 20
-18.898496
 11
-2.050407
 21
-18.928406
 39
0.006944
 62
1
  0
LINE
  8
BOPEN_End
 10
-2.050407
 20
-18.928406
 11
-2.122614
 21
-18.898496
 39
0.006944
 62
1
  0
LINE
  8
BOPEN_End
 10
-2.122614
 20
-18.898496
 11
-2.050407
 21
-18.928406
 39
0.006944
 62
1
  0
LINE
  8
BOPEN_End
 10
-2.050407
 20
-18.928406
 11
-1.978200
 21
-18.898496
 39
0.006944
 62
1
  0
LINE
  8
BOPEN_End
 10
-1.978200
 20
-18.898496
 11
-1.948291
 21
-18.826290
 39
0.006944
 62
1
  0
LINE
  8
BOPEN_End
 10
-1.948291
 20
-18.826290
 11
-1.978200
 21
-18.754082
 39
0.006944
 62
1
  0
LINE
  8
BOPEN_End
 10
-7.943418
 20
-18.588789
 11
5.834707
 21
-18.588789
 39
0.006944
 62
1
  0
LINE
  8
BOPEN_End
 10
5.834707
 20
-18.588789
 11
-7.943418
 21
-18.588789
 39
0.006944
 62
1
  0
LINE
  8
BOPEN_End
 10
4.700331
 20
-10.436158
 11
4.700331
 21
-10.436158
 39
0.006944
 62
1
  0
LINE
  8
BOPEN_End
 10
4.700331
 20
-10.436158
 11
4.700331
 21
-10.436158
 39
0.006944
 62
1
  0
LINE
  8
BOPEN_End
 10
4.996224
 20
-9.801978
 11
4.978203
 21
-9.758481
 39
0.006944
 62
1
  0
LINE
  8
BOPEN_End
 10
4.978203
 20
-9.758481
 11
4.934704
 21
-9.740463
 39
0.006944
 62
1
  0
LINE
  8
BOPEN_End
 10
4.934704
 20
-9.740463
 11
4.891210
 21
-9.758481
 39
0.006944
 62
1
  0
LINE
  8
BOPEN_End
 10
4.891210
 20
-9.758481
 11
4.873189
 21
-9.801978
 39
0.006944
 62
1
  0
LINE
  8
BOPEN_End
 10
4.978203
 20
-9.845477
 11
4.996224
 21
-9.801978
 39
0.006944
 62
1
  0
LINE
  8
BOPEN_End
 10
4.873189
 20
-9.801978
 11
4.891210
 21
-9.845477
 39
0.006944
 62
1
  0
LINE
  8
BOPEN_End
 10
4.891210
 20
-9.845477
 11
4.934704
 21
-9.863495
 39
0.006944
 62
1
  0
LINE
  8
BOPEN_End
 10
4.934704
 20
-9.863495
 11
4.978203
 21
-9.845477
 39
0.006944
 62
1
  0
LINE
  8
BOPEN_End
 10
5.169082
 20
-10.436158
 11
5.169082
 21
-10.436158
 39
0.006944
 62
1
  0
LINE
  8
BOPEN_End
 10
5.169082
 20
-10.436158
 11
4.700331
 21
-10.436158
 39
0.006944
 62
1
  0
LINE
  8
BOPEN_End
 10
4.700331
 20
-10.436158
 11
5.169082
 21
-10.436158
 39
0.006944
 62
1
  0
LINE
  8
BOPEN_End
 10
5.169082
 20
-10.436158
 11
5.169082
 21
-10.436158
 39
0.006944
 62
1
  0
LINE
  8
BOPEN_End
 10
5.169082
 20
-10.436158
 11
4.700331
 21
-10.436158
 39
0.006944
 62
1
  0
LINE
  8
BOPEN_End
 10
4.700331
 20
-10.436158
 11
4.700331
 21
-10.901782
 39
0.006944
 62
1
  0
LINE
  8
BOPEN_End
 10
4.700331
 20
-10.901782
 11
4.700331
 21
-10.436158
 39
0.006944
 62
1
  0
LINE
  8
BOPEN_End
 10
4.700331
 20
-10.436158
 11
4.700331
 21
-10.901782
 39
0.006944
 62
1
  0
LINE
  8
BOPEN_End
 10
4.700331
 20
-11.376783
 11
4.700331
 21
-10.901782
 39
0.006944
 62
1
  0
LINE
  8
BOPEN_End
 10
4.700331
 20
-10.901782
 11
4.700331
 21
-11.376783
 39
0.006944
 62
1
  0
LINE
  8
BOPEN_End
 10
4.700331
 20
-11.376783
 11
4.700331
 21
-11.842407
 39
0.006944
 62
1
  0
LINE
  8
BOPEN_End
 10
4.700331
 20
-11.842407
 11
4.700331
 21
-11.376783
 39
0.006944
 62
1
  0
LINE
  8
BOPEN_End
 10
4.700331
 20
-11.376783
 11
4.700331
 21
-11.842407
 39
0.006944
 62
1
  0
LINE
  8
BOPEN_End
 10
5.169082
 20
-10.436158
 11
5.169082
 21
-10.901782
 39
0.006944
 62
1
  0
LINE
  8
BOPEN_End
 10
5.169082
 20
-10.901782
 11
5.169082
 21
-10.436158
 39
0.006944
 62
1
  0
LINE
  8
BOPEN_End
 10
4.700331
 20
-10.901782
 11
5.169082
 21
-10.901782
 39
0.006944
 62
1
  0
LINE
  8
BOPEN_End
 10
5.169082
 20
-10.901782
 11
4.700331
 21
-10.901782
 39
0.006944
 62
1
  0
LINE
  8
BOPEN_End
 10
5.169082
 20
-10.901782
 11
5.834707
 21
-10.901782
 39
0.006944
 62
1
  0
LINE
  8
BOPEN_End
 10
5.834707
 20
-10.901782
 11
5.169082
 21
-10.901782
 39
0.006944
 62
1
  0
LINE
  8
BOPEN_End
 10
5.169082
 20
-10.901782
 11
5.169082
 21
-11.376783
 39
0.006944
 62
1
  0
LINE
  8
BOPEN_End
 10
5.169082
 20
-11.376783
 11
5.169082
 21
-10.901782
 39
0.006944
 62
1
  0
LINE
  8
BOPEN_End
 10
5.872204
 20
-10.901782
 11
5.872204
 21
-10.901782
 39
0.006944
 62
1
  0
LINE
  8
BOPEN_End
 10
5.834707
 20
-10.901782
 11
5.872204
 21
-10.901782
 39
0.006944
 62
1
  0
LINE
  8
BOPEN_End
 10
5.872204
 20
-10.901782
 11
5.872204
 21
-10.901782
 39
0.006944
 62
1
  0
LINE
  8
BOPEN_End
 10
5.872204
 20
-10.901782
 11
5.834707
 21
-10.901782
 39
0.006944
 62
1
  0
LINE
  8
BOPEN_End
 10
6.165955
 20
-18.588789
 11
6.165955
 21
-2.976290
 39
0.006944
 62
1
  0
LINE
  8
BOPEN_End
 10
5.872204
 20
-11.376783
 11
5.872204
 21
-10.901782
 39
0.006944
 62
1
  0
LINE
  8
BOPEN_End
 10
5.872204
 20
-10.901782
 11
5.872204
 21
-11.376783
 39
0.006944
 62
1
  0
LINE
  8
BOPEN_End
 10
5.169082
 20
-11.376783
 11
4.700331
 21
-11.376783
 39
0.006944
 62
1
  0
LINE
  8
BOPEN_End
 10
4.700331
 20
-11.376783
 11
5.169082
 21
-11.376783
 39
0.006944
 62
1
  0
LINE
  8
BOPEN_End
 10
5.834707
 20
-11.376783
 11
5.169082
 21
-11.376783
 39
0.006944
 62
1
  0
LINE
  8
BOPEN_End
 10
5.169082
 20
-11.376783
 11
5.834707
 21
-11.376783
 39
0.006944
 62
1
  0
LINE
  8
BOPEN_End
 10
5.169082
 20
-11.376783
 11
5.169082
 21
-11.842407
 39
0.006944
 62
1
  0
LINE
  8
BOPEN_End
 10
5.169082
 20
-11.842407
 11
5.169082
 21
-11.376783
 39
0.006944
 62
1
  0
LINE
  8
BOPEN_End
 10
5.872204
 20
-11.376783
 11
5.872204
 21
-11.376783
 39
0.006944
 62
1
  0
LINE
  8
BOPEN_End
 10
5.872204
 20
-11.376783
 11
5.834707
 21
-11.376783
 39
0.006944
 62
1
  0
LINE
  8
BOPEN_End
 10
5.834707
 20
-11.376783
 11
5.872204
 21
-11.376783
 39
0.006944
 62
1
  0
LINE
  8
BOPEN_End
 10
5.872204
 20
-11.376783
 11
5.872204
 21
-11.376783
 39
0.006944
 62
1
  0
LINE
  8
BOPEN_End
 10
4.700331
 20
-11.842407
 11
4.700331
 21
-11.842407
 39
0.006944
 62
1
  0
LINE
  8
BOPEN_End
 10
4.700331
 20
-11.842407
 11
4.700331
 21
-11.842407
 39
0.006944
 62
1
  0
LINE
  8
BOPEN_End
 10
5.169082
 20
-11.842407
 11
4.700331
 21
-11.842407
 39
0.006944
 62
1
  0
LINE
  8
BOPEN_End
 10
4.700331
 20
-11.842407
 11
5.169082
 21
-11.842407
 39
0.006944
 62
1
  0
LINE
  8
BOPEN_End
 10
4.978203
 20
-12.207681
 11
4.996224
 21
-12.164183
 39
0.006944
 62
1
  0
LINE
  8
BOPEN_End
 10
4.996224
 20
-12.164183
 11
4.978203
 21
-12.120684
 39
0.006944
 62
1
  0
LINE
  8
BOPEN_End
 10
4.978203
 20
-12.120684
 11
4.934704
 21
-12.102668
 39
0.006944
 62
1
  0
LINE
  8
BOPEN_End
 10
4.934704
 20
-12.102668
 11
4.891210
 21
-12.120684
 39
0.006944
 62
1
  0
LINE
  8
BOPEN_End
 10
4.891210
 20
-12.120684
 11
4.873189
 21
-12.164183
 39
0.006944
 62
1
  0
LINE
  8
BOPEN_End
 10
4.873189
 20
-12.164183
 11
4.891210
 21
-12.207681
 39
0.006944
 62
1
  0
LINE
  8
BOPEN_End
 10
4.891210
 20
-12.207681
 11
4.934704
 21
-12.225700
 39
0.006944
 62
1
  0
LINE
  8
BOPEN_End
 10
4.934704
 20
-12.225700
 11
4.978203
 21
-12.207681
 39
0.006944
 62
1
  0
LINE
  8
BOPEN_End
 10
4.978203
 20
-12.995084
 11
4.996224
 21
-12.951585
 39
0.006944
 62
1
  0
LINE
  8
BOPEN_End
 10
4.996224
 20
-12.951585
 11
4.978203
 21
-12.908087
 39
0.006944
 62
1
  0
LINE
  8
BOPEN_End
 10
4.978203
 20
-12.908087
 11
4.934704
 21
-12.890070
 39
0.006944
 62
1
  0
LINE
  8
BOPEN_End
 10
4.934704
 20
-12.890070
 11
4.891210
 21
-12.908087
 39
0.006944
 62
1
  0
LINE
  8
BOPEN_End
 10
4.891210
 20
-12.908087
 11
4.873189
 21
-12.951585
 39
0.006944
 62
1
  0
LINE
  8
BOPEN_End
 10
4.873189
 20
-12.951585
 11
4.891210
 21
-12.995084
 39
0.006944
 62
1
  0
LINE
  8
BOPEN_End
 10
4.891210
 20
-12.995084
 11
4.934704
 21
-13.013100
 39
0.006944
 62
1
  0
LINE
  8
BOPEN_End
 10
4.934704
 20
-13.013100
 11
4.978203
 21
-12.995084
 39
0.006944
 62
1
  0
LINE
  8
BOPEN_End
 10
4.996224
 20
-13.738985
 11
4.978203
 21
-13.695489
 39
0.006944
 62
1
  0
LINE
  8
BOPEN_End
 10
4.978203
 20
-13.695489
 11
4.934704
 21
-13.677470
 39
0.006944
 62
1
  0
LINE
  8
BOPEN_End
 10
4.934704
 20
-13.677470
 11
4.891210
 21
-13.695489
 39
0.006944
 62
1
  0
LINE
  8
BOPEN_End
 10
4.891210
 20
-13.695489
 11
4.873189
 21
-13.738985
 39
0.006944
 62
1
  0
LINE
  8
BOPEN_End
 10
4.978203
 20
-13.782484
 11
4.996224
 21
-13.738985
 39
0.006944
 62
1
  0
LINE
  8
BOPEN_End
 10
4.873189
 20
-13.738985
 11
4.891210
 21
-13.782484
 39
0.006944
 62
1
  0
LINE
  8
BOPEN_End
 10
4.891210
 20
-13.782484
 11
4.934704
 21
-13.800503
 39
0.006944
 62
1
  0
LINE
  8
BOPEN_End
 10
4.934704
 20
-13.800503
 11
4.978203
 21
-13.782484
 39
0.006944
 62
1
  0
LINE
  8
BOPEN_End
 10
4.978203
 20
-14.569886
 11
4.996224
 21
-14.526388
 39
0.006944
 62
1
  0
LINE
  8
BOPEN_End
 10
4.996224
 20
-14.526388
 11
4.978203
 21
-14.482889
 39
0.006944
 62
1
  0
LINE
  8
BOPEN_End
 10
4.978203
 20
-14.482889
 11
4.934704
 21
-14.464873
 39
0.006944
 62
1
  0
LINE
  8
BOPEN_End
 10
4.934704
 20
-14.464873
 11
4.891210
 21
-14.482889
 39
0.006944
 62
1
  0
LINE
  8
BOPEN_End
 10
4.891210
 20
-14.482889
 11
4.873189
 21
-14.526388
 39
0.006944
 62
1
  0
LINE
  8
BOPEN_End
 10
4.873189
 20
-14.526388
 11
4.891210
 21
-14.569886
 39
0.006944
 62
1
  0
LINE
  8
BOPEN_End
 10
4.891210
 20
-14.569886
 11
4.934704
 21
-14.587903
 39
0.006944
 62
1
  0
LINE
  8
BOPEN_End
 10
4.934704
 20
-14.587903
 11
4.978203
 21
-14.569886
 39
0.006944
 62
1
  0
LINE
  8
BOPEN_End
 10
5.834707
 20
-11.376783
 11
5.834707
 21
-18.588789
 39
0.006944
 62
1
  0
LINE
  8
BOPEN_End
 10
4.978203
 20
-15.357288
 11
4.996224
 21
-15.313790
 39
0.006944
 62
1
  0
LINE
  8
BOPEN_End
 10
4.996224
 20
-15.313790
 11
4.978203
 21
-15.270291
 39
0.006944
 62
1
  0
LINE
  8
BOPEN_End
 10
4.978203
 20
-15.270291
 11
4.934704
 21
-15.252275
 39
0.006944
 62
1
  0
LINE
  8
BOPEN_End
 10
4.934704
 20
-15.252275
 11
4.891210
 21
-15.270291
 39
0.006944
 62
1
  0
LINE
  8
BOPEN_End
 10
4.891210
 20
-15.270291
 11
4.873189
 21
-15.313790
 39
0.006944
 62
1
  0
LINE
  8
BOPEN_End
 10
4.873189
 20
-15.313790
 11
4.891210
 21
-15.357288
 39
0.006944
 62
1
  0
LINE
  8
BOPEN_End
 10
4.891210
 20
-15.357288
 11
4.934704
 21
-15.375305
 39
0.006944
 62
1
  0
LINE
  8
BOPEN_End
 10
4.934704
 20
-15.375305
 11
4.978203
 21
-15.357288
 39
0.006944
 62
1
  0
LINE
  8
BOPEN_End
 10
0.239591
 20
-18.754082
 11
0.311796
 21
-18.724174
 39
0.006944
 62
1
  0
LINE
  8
BOPEN_End
 10
0.311796
 20
-18.724174
 11
0.384005
 21
-18.754082
 39
0.006944
 62
1
  0
LINE
  8
BOPEN_End
 10
0.384005
 20
-18.754082
 11
0.311796
 21
-18.724174
 39
0.006944
 62
1
  0
LINE
  8
BOPEN_End
 10
0.311796
 20
-18.724174
 11
0.239591
 21
-18.754082
 39
0.006944
 62
1
  0
LINE
  8
BOPEN_End
 10
0.384005
 20
-18.754082
 11
0.413914
 21
-18.826290
 39
0.006944
 62
1
  0
LINE
  8
BOPEN_End
 10
0.413914
 20
-18.826290
 11
0.384005
 21
-18.898496
 39
0.006944
 62
1
  0
LINE
  8
BOPEN_End
 10
0.384005
 20
-18.898496
 11
0.311796
 21
-18.928406
 39
0.006944
 62
1
  0
LINE
  8
BOPEN_End
 10
0.311796
 20
-18.928406
 11
0.239591
 21
-18.898496
 39
0.006944
 62
1
  0
LINE
  8
BOPEN_End
 10
0.239591
 20
-18.898496
 11
0.209682
 21
-18.826290
 39
0.006944
 62
1
  0
LINE
  8
BOPEN_End
 10
0.209682
 20
-18.826290
 11
0.239591
 21
-18.754082
 39
0.006944
 62
1
  0
LINE
  8
BOPEN_End
 10
0.239591
 20
-18.898496
 11
0.311796
 21
-18.928406
 39
0.006944
 62
1
  0
LINE
  8
BOPEN_End
 10
0.311796
 20
-18.928406
 11
0.384005
 21
-18.898496
 39
0.006944
 62
1
  0
LINE
  8
BOPEN_End
 10
0.384005
 20
-18.898496
 11
0.413914
 21
-18.826290
 39
0.006944
 62
1
  0
LINE
  8
BOPEN_End
 10
0.413914
 20
-18.826290
 11
0.384005
 21
-18.754082
 39
0.006944
 62
1
  0
LINE
  8
BOPEN_End
 10
0.239591
 20
-18.754082
 11
0.209682
 21
-18.826290
 39
0.006944
 62
1
  0
LINE
  8
BOPEN_End
 10
0.209682
 20
-18.826290
 11
0.239591
 21
-18.898496
 39
0.006944
 62
1
  0
LINE
  8
BOPEN_End
 10
-7.943418
 20
-19.063789
 11
6.497206
 21
-19.063789
 39
0.006944
 62
1
  0
LINE
  8
BOPEN_End
 10
6.497206
 20
-19.063789
 11
-7.943418
 21
-19.063789
 39
0.006944
 62
1
  0
LINE
  8
BOPEN_End
 10
-7.943418
 20
-19.063789
 11
6.497206
 21
-19.063789
 39
0.006944
 62
1
  0
LINE
  8
BOPEN_End
 10
6.497206
 20
-19.063789
 11
-7.943418
 21
-19.063789
 39
0.006944
 62
1
  0
LINE
  8
BOPEN_End
 10
2.601795
 20
-18.754082
 11
2.674003
 21
-18.724174
 39
0.006944
 62
1
  0
LINE
  8
BOPEN_End
 10
2.674003
 20
-18.724174
 11
2.746209
 21
-18.754082
 39
0.006944
 62
1
  0
LINE
  8
BOPEN_End
 10
2.746209
 20
-18.754082
 11
2.674003
 21
-18.724174
 39
0.006944
 62
1
  0
LINE
  8
BOPEN_End
 10
2.674003
 20
-18.724174
 11
2.601795
 21
-18.754082
 39
0.006944
 62
1
  0
LINE
  8
BOPEN_End
 10
2.746209
 20
-18.754082
 11
2.776118
 21
-18.826290
 39
0.006944
 62
1
  0
LINE
  8
BOPEN_End
 10
2.776118
 20
-18.826290
 11
2.746209
 21
-18.898496
 39
0.006944
 62
1
  0
LINE
  8
BOPEN_End
 10
2.746209
 20
-18.898496
 11
2.674003
 21
-18.928406
 39
0.006944
 62
1
  0
LINE
  8
BOPEN_End
 10
2.674003
 20
-18.928406
 11
2.601795
 21
-18.898496
 39
0.006944
 62
1
  0
LINE
  8
BOPEN_End
 10
2.601795
 20
-18.898496
 11
2.571886
 21
-18.826290
 39
0.006944
 62
1
  0
LINE
  8
BOPEN_End
 10
2.571886
 20
-18.826290
 11
2.601795
 21
-18.754082
 39
0.006944
 62
1
  0
LINE
  8
BOPEN_End
 10
2.601795
 20
-18.898496
 11
2.674003
 21
-18.928406
 39
0.006944
 62
1
  0
LINE
  8
BOPEN_End
 10
2.674003
 20
-18.928406
 11
2.746209
 21
-18.898496
 39
0.006944
 62
1
  0
LINE
  8
BOPEN_End
 10
2.746209
 20
-18.898496
 11
2.776118
 21
-18.826290
 39
0.006944
 62
1
  0
LINE
  8
BOPEN_End
 10
2.776118
 20
-18.826290
 11
2.746209
 21
-18.754082
 39
0.006944
 62
1
  0
LINE
  8
BOPEN_End
 10
2.601795
 20
-18.754082
 11
2.571886
 21
-18.826290
 39
0.006944
 62
1
  0
LINE
  8
BOPEN_End
 10
2.571886
 20
-18.826290
 11
2.601795
 21
-18.898496
 39
0.006944
 62
1
  0
LINE
  8
BOPEN_End
 10
4.964002
 20
-18.754082
 11
5.036207
 21
-18.724174
 39
0.006944
 62
1
  0
LINE
  8
BOPEN_End
 10
5.036207
 20
-18.724174
 11
5.108416
 21
-18.754082
 39
0.006944
 62
1
  0
LINE
  8
BOPEN_End
 10
5.108416
 20
-18.754082
 11
5.036207
 21
-18.724174
 39
0.006944
 62
1
  0
LINE
  8
BOPEN_End
 10
5.036207
 20
-18.724174
 11
4.964002
 21
-18.754082
 39
0.006944
 62
1
  0
LINE
  8
BOPEN_End
 10
5.108416
 20
-18.754082
 11
5.138325
 21
-18.826290
 39
0.006944
 62
1
  0
LINE
  8
BOPEN_End
 10
5.138325
 20
-18.826290
 11
5.108416
 21
-18.898496
 39
0.006944
 62
1
  0
LINE
  8
BOPEN_End
 10
5.108416
 20
-18.898496
 11
5.036207
 21
-18.928406
 39
0.006944
 62
1
  0
LINE
  8
BOPEN_End
 10
5.036207
 20
-18.928406
 11
4.964002
 21
-18.898496
 39
0.006944
 62
1
  0
LINE
  8
BOPEN_End
 10
4.964002
 20
-18.898496
 11
4.934089
 21
-18.826290
 39
0.006944
 62
1
  0
LINE
  8
BOPEN_End
 10
4.934089
 20
-18.826290
 11
4.964002
 21
-18.754082
 39
0.006944
 62
1
  0
LINE
  8
BOPEN_End
 10
4.964002
 20
-18.898496
 11
5.036207
 21
-18.928406
 39
0.006944
 62
1
  0
LINE
  8
BOPEN_End
 10
5.036207
 20
-18.928406
 11
5.108416
 21
-18.898496
 39
0.006944
 62
1
  0
LINE
  8
BOPEN_End
 10
5.108416
 20
-18.898496
 11
5.138325
 21
-18.826290
 39
0.006944
 62
1
  0
LINE
  8
BOPEN_End
 10
5.138325
 20
-18.826290
 11
5.108416
 21
-18.754082
 39
0.006944
 62
1
  0
LINE
  8
BOPEN_End
 10
4.964002
 20
-18.754082
 11
4.934089
 21
-18.826290
 39
0.006944
 62
1
  0
LINE
  8
BOPEN_End
 10
4.934089
 20
-18.826290
 11
4.964002
 21
-18.898496
 39
0.006944
 62
1
  0
LINE
  8
BOPEN_End
 10
5.834707
 20
-18.588789
 11
5.834707
 21
-18.588789
 39
0.006944
 62
1
  0
LINE
  8
BOPEN_End
 10
6.165955
 20
-18.588789
 11
6.165955
 21
-18.588789
 39
0.006944
 62
1
  0
LINE
  8
BOPEN_End
 10
6.147206
 20
-18.588789
 11
6.165955
 21
-18.588789
 39
0.006944
 62
1
  0
LINE
  8
BOPEN_End
 10
5.834707
 20
-18.588789
 11
6.147206
 21
-18.588789
 39
0.006944
 62
1
  0
LINE
  8
BOPEN_End
 10
6.147206
 20
-18.588789
 11
5.834707
 21
-18.588789
 39
0.006944
 62
1
  0
LINE
  8
BOPEN_End
 10
6.165955
 20
-18.588789
 11
6.147206
 21
-18.588789
 39
0.006944
 62
1
  0
LINE
  8
BOPEN_End
 10
5.834707
 20
-18.588789
 11
5.834707
 21
-18.823164
 39
0.006944
 62
1
  0
LINE
  8
BOPEN_End
 10
6.165955
 20
-18.829415
 11
6.165955
 21
-18.588789
 39
0.006944
 62
1
  0
LINE
  8
BOPEN_End
 10
6.497206
 20
-18.588789
 11
6.497206
 21
-18.588789
 39
0.006944
 62
1
  0
LINE
  8
BOPEN_End
 10
6.165955
 20
-18.588789
 11
6.497206
 21
-18.588789
 39
0.006944
 62
1
  0
LINE
  8
BOPEN_End
 10
6.497206
 20
-18.588789
 11
6.497206
 21
-18.588789
 39
0.006944
 62
1
  0
LINE
  8
BOPEN_End
 10
6.497206
 20
-18.588789
 11
6.165955
 21
-18.588789
 39
0.006944
 62
1
  0
LINE
  8
BOPEN_End
 10
6.165955
 20
-18.829415
 11
6.165955
 21
-18.829415
 39
0.006944
 62
1
  0
LINE
  8
BOPEN_End
 10
5.834707
 20
-18.829415
 11
5.834707
 21
-18.829415
 39
0.006944
 62
1
  0
LINE
  8
BOPEN_End
 10
6.147206
 20
-18.823164
 11
6.147206
 21
-18.823164
 39
0.006944
 62
1
  0
LINE
  8
BOPEN_End
 10
5.834707
 20
-18.823164
 11
5.834707
 21
-18.823164
 39
0.006944
 62
1
  0
LINE
  8
BOPEN_End
 10
6.147206
 20
-18.823164
 11
6.147206
 21
-18.823164
 39
0.006944
 62
1
  0
LINE
  8
BOPEN_End
 10
5.834707
 20
-18.823164
 11
5.834707
 21
-18.823164
 39
0.006944
 62
1
  0
LINE
  8
BOPEN_End
 10
5.834707
 20
-18.829415
 11
5.834707
 21
-18.841914
 39
0.006944
 62
1
  0
LINE
  8
BOPEN_End
 10
5.834707
 20
-18.823164
 11
5.834707
 21
-18.829415
 39
0.006944
 62
1
  0
LINE
  8
BOPEN_End
 10
5.834707
 20
-18.841914
 11
6.165955
 21
-18.841914
 39
0.006944
 62
1
  0
LINE
  8
BOPEN_End
 10
6.165955
 20
-18.841914
 11
6.165955
 21
-18.829415
 39
0.006944
 62
1
  0
LINE
  8
BOPEN_End
 10
6.497206
 20
-19.063789
 11
6.497206
 21
-18.588789
 39
0.006944
 62
1
  0
LINE
  8
BOPEN_End
 10
6.497206
 20
-19.063789
 11
6.497206
 21
-18.588789
 39
0.006944
 62
1
  0
LINE
  8
BOPEN_End
 10
6.497206
 20
-18.588789
 11
6.497206
 21
-19.063789
 39
0.006944
 62
1
  0
LINE
  8
BOPEN_End
 10
6.497206
 20
-18.588789
 11
6.497206
 21
-19.063789
 39
0.006944
 62
1
  0
LINE
  8
BOPEN_End
 10
6.497206
 20
-19.063789
 11
6.497206
 21
-19.063789
 39
0.006944
 62
1
  0
LINE
  8
BOPEN_End
 10
6.497206
 20
-19.063789
 11
6.497206
 21
-19.063789
 39
0.006944
 62
1
  0
LINE
  8
BOPEN_End
 10
-11.705918
 20
-19.063789
 11
-10.455918
 21
-19.063789
 39
0.006944
 62
1
  0
LINE
  8
BOPEN_End
 10
-11.705918
 20
-0.001290
 11
-10.455918
 21
-0.001290
 39
0.006944
 62
1
  0
LINE
  8
BOPEN_End
 10
-11.080918
 20
-19.063789
 11
-11.080918
 21
-0.001290
 39
0.006944
 62
1
  0
LINE
  8
BOPEN_End
 10
-7.955918
 20
-22.813789
 11
-7.955918
 21
-21.563789
 39
0.006944
 62
1
  0
LINE
  8
BOPEN_End
 10
6.497206
 20
-22.813789
 11
6.497206
 21
-21.563789
 39
0.006944
 62
1
  0
LINE
  8
BOPEN_End
 10
-7.955918
 20
-22.188789
 11
6.497206
 21
-22.188789
 39
0.006944
 62
1
  0
TEXT
  8
BOPEN_End
 10
-3.107003
 20
-21.795465
 11
-3.107003
 21
-21.795465
 40
0.937500
 41
0.45
 50
0.000000
 72
0
 73
0
 62
1
  1
DEPTH
  0
TEXT
  8
BOPEN_End
 10
-9.957930
 20
-10.365235
 11
-9.957930
 21
-10.365235
 40
0.937500
 41
0.45
 50
90.000000
 72
0
 73
0
 62
1
  1
HEIGHT
  0
TEXT
  8
BOPEN_End
 10
-6.027661
 20
0.596247
 11
-6.027661
 21
0.596247
 40
0.937500
 41
0.45
 50
0.000000
 72
0
 73
0
 62
1
  1
SECTION "B-B"
  0
LINE
  8
BOPEN_End
 10
-32.113487
 20
-0.001290
 11
-32.125987
 21
-0.001290
 39
0.006944
 62
1
  0
LINE
  8
BOPEN_End
 10
-32.113487
 20
-0.001290
 11
-32.125987
 21
-0.001290
 39
0.006944
 62
1
  0
LINE
  8
BOPEN_End
 10
-32.113487
 20
-0.001290
 11
-32.125987
 21
-0.001290
 39
0.006944
 62
1
  0
LINE
  8
BOPEN_End
 10
-29.625987
 20
-0.001290
 11
-32.113487
 21
-0.001290
 39
0.006944
 62
1
  0
LINE
  8
BOPEN_End
 10
-29.625987
 20
-0.001290
 11
-32.113487
 21
-0.001290
 39
0.006944
 62
1
  0
LINE
  8
BOPEN_End
 10
-32.125987
 20
-0.001290
 11
-32.125987
 21
-0.476290
 39
0.006944
 62
1
  0
LINE
  8
BOPEN_End
 10
-32.125987
 20
-0.001290
 11
-32.125987
 21
-0.476290
 39
0.006944
 62
1
  0
LINE
  8
BOPEN_End
 10
-20.172864
 20
-0.001290
 11
-29.625987
 21
-0.001290
 39
0.006944
 62
1
  0
LINE
  8
BOPEN_End
 10
-32.113487
 20
-19.063789
 11
-32.113487
 21
-0.001290
 39
0.006944
 62
1
  0
LINE
  8
BOPEN_End
 10
-32.125987
 20
-0.001290
 11
-32.125987
 21
-19.063789
 39
0.006944
 62
1
  0
LINE
  8
BOPEN_End
 10
-32.113487
 20
-0.001290
 11
-32.113487
 21
-19.063789
 39
0.006944
 62
1
  0
LINE
  8
BOPEN_End
 10
-32.125987
 20
-0.476290
 11
-32.125987
 21
-18.588789
 39
0.006944
 62
1
  0
LINE
  8
BOPEN_End
 10
-17.672863
 20
-0.001290
 11
-32.113487
 21
-0.001290
 39
0.006944
 62
1
  0
LINE
  8
BOPEN_End
 10
-17.672863
 20
-0.001290
 11
-20.172864
 21
-0.001290
 39
0.006944
 62
1
  0
LINE
  8
BOPEN_End
 10
-17.672863
 20
-0.001290
 11
-20.172864
 21
-0.001290
 39
0.006944
 62
1
  0
LINE
  8
BOPEN_End
 10
-17.672863
 20
-19.063789
 11
-17.672863
 21
-0.001290
 39
0.006944
 62
1
  0
LINE
  8
BOPEN_End
 10
-32.125987
 20
-18.588789
 11
-32.125987
 21
-19.063789
 39
0.006944
 62
1
  0
LINE
  8
BOPEN_End
 10
-32.125987
 20
-18.588789
 11
-32.125987
 21
-19.063789
 39
0.006944
 62
1
  0
LINE
  8
BOPEN_End
 10
-32.125987
 20
-19.063789
 11
-32.113487
 21
-19.063789
 39
0.006944
 62
1
  0
LINE
  8
BOPEN_End
 10
-32.113487
 20
-19.063789
 11
-17.672863
 21
-19.063789
 39
0.006944
 62
1
  0
LINE
  8
BOPEN_End
 10
-35.875987
 20
-19.063789
 11
-34.625987
 21
-19.063789
 39
0.006944
 62
1
  0
LINE
  8
BOPEN_End
 10
-35.875987
 20
-0.001290
 11
-34.625987
 21
-0.001290
 39
0.006944
 62
1
  0
LINE
  8
BOPEN_End
 10
-35.250987
 20
-19.063789
 11
-35.250987
 21
-0.001290
 39
0.006944
 62
1
  0
LINE
  8
BOPEN_End
 10
-32.125987
 20
-22.813789
 11
-32.125987
 21
-21.563789
 39
0.006944
 62
1
  0
LINE
  8
BOPEN_End
 10
-17.672862
 20
-22.813789
 11
-17.672862
 21
-21.563789
 39
0.006944
 62
1
  0
LINE
  8
BOPEN_End
 10
-32.125987
 20
-22.188789
 11
-17.672862
 21
-22.188789
 39
0.006944
 62
1
  0
TEXT
  8
BOPEN_End
 10
-27.277649
 20
-21.732293
 11
-27.277649
 21
-21.732293
 40
0.937500
 41
0.45
 50
0.000000
 72
0
 73
0
 62
1
  1
DEPTH
  0
TEXT
  8
BOPEN_End
 10
-34.210786
 20
-11.316000
 11
-34.210786
 21
-11.316000
 40
0.937500
 41
0.45
 50
90.000000
 72
0
 73
0
 62
1
  1
HEIGHT
  0
LINE
  8
BOPEN_Front
 10
-55.693844
 20
0.125921
 11
-56.168845
 21
0.125921
 39
0.006944
 62
1
  0
LINE
  8
BOPEN_Front
 10
-55.693844
 20
0.125921
 11
-56.168845
 21
0.125921
 39
0.006944
 62
1
  0
LINE
  8
BOPEN_Front
 10
-55.693844
 20
0.125921
 11
-55.693844
 21
-0.349079
 39
0.006944
 62
1
  0
LINE
  8
BOPEN_Front
 10
-55.693844
 20
-0.349079
 11
-55.693844
 21
0.125921
 39
0.006944
 62
1
  0
LINE
  8
BOPEN_Front
 10
-45.393845
 20
0.125921
 11
-55.693844
 21
0.125921
 39
0.006944
 62
1
  0
LINE
  8
BOPEN_Front
 10
-45.393845
 20
0.125921
 11
-55.693844
 21
0.125921
 39
0.006944
 62
1
  0
LINE
  8
BOPEN_Front
 10
-45.393845
 20
0.125921
 11
-55.693844
 21
0.125921
 39
0.006944
 62
1
  0
LINE
  8
BOPEN_Front
 10
-55.693844
 20
-0.349079
 11
-45.393845
 21
-0.349079
 39
0.006944
 62
1
  0
LINE
  8
BOPEN_Front
 10
-56.168845
 20
0.125921
 11
-56.168845
 21
-18.936578
 39
0.006944
 62
1
  0
LINE
  8
BOPEN_Front
 10
-56.168845
 20
0.125921
 11
-56.168845
 21
-18.936578
 39
0.006944
 62
1
  0
LINE
  8
BOPEN_Front
 10
-55.693844
 20
-18.461578
 11
-55.693844
 21
-0.349079
 39
0.006944
 62
1
  0
LINE
  8
BOPEN_Front
 10
-44.918845
 20
0.125921
 11
-45.393845
 21
0.125921
 39
0.006944
 62
1
  0
LINE
  8
BOPEN_Front
 10
-44.918845
 20
0.125921
 11
-45.393845
 21
0.125921
 39
0.006944
 62
1
  0
LINE
  8
BOPEN_Front
 10
-45.393845
 20
-0.349079
 11
-45.393845
 21
0.125921
 39
0.006944
 62
1
  0
LINE
  8
BOPEN_Front
 10
-45.393845
 20
0.125921
 11
-45.393845
 21
-0.349079
 39
0.006944
 62
1
  0
LINE
  8
BOPEN_Front
 10
-45.393845
 20
-0.349079
 11
-45.393845
 21
-18.461578
 39
0.006944
 62
1
  0
LINE
  8
BOPEN_Front
 10
-45.393845
 20
-0.349079
 11
-45.393845
 21
-18.461578
 39
0.006944
 62
1
  0
LINE
  8
BOPEN_Front
 10
-44.918845
 20
-18.936578
 11
-44.918845
 21
0.125921
 39
0.006944
 62
1
  0
LINE
  8
BOPEN_Front
 10
-55.595095
 20
-10.308947
 11
-55.692594
 21
-10.308947
 39
0.006944
 62
1
  0
LINE
  8
BOPEN_Front
 10
-55.595095
 20
-10.308947
 11
-55.692594
 21
-10.308947
 39
0.006944
 62
1
  0
LINE
  8
BOPEN_Front
 10
-55.595095
 20
-10.774572
 11
-55.595095
 21
-10.308947
 39
0.006944
 62
1
  0
LINE
  8
BOPEN_Front
 10
-55.692594
 20
-10.308947
 11
-55.692594
 21
-11.715196
 39
0.006944
 62
1
  0
LINE
  8
BOPEN_Front
 10
-55.692594
 20
-10.308947
 11
-55.692594
 21
-11.715196
 39
0.006944
 62
1
  0
LINE
  8
BOPEN_Front
 10
-55.595095
 20
-10.774572
 11
-55.595095
 21
-11.249572
 39
0.006944
 62
1
  0
LINE
  8
BOPEN_Front
 10
-55.595095
 20
-11.249572
 11
-55.595095
 21
-10.774572
 39
0.006944
 62
1
  0
LINE
  8
BOPEN_Front
 10
-55.595095
 20
-10.774572
 11
-55.595095
 21
-11.249572
 39
0.006944
 62
1
  0
LINE
  8
BOPEN_Front
 10
-55.595095
 20
-11.715196
 11
-55.595095
 21
-11.249572
 39
0.006944
 62
1
  0
LINE
  8
BOPEN_Front
 10
-45.492597
 20
-10.774572
 11
-55.595095
 21
-10.774572
 39
0.006944
 62
1
  0
LINE
  8
BOPEN_Front
 10
-45.492597
 20
-10.774572
 11
-55.595095
 21
-10.774572
 39
0.006944
 62
1
  0
LINE
  8
BOPEN_Front
 10
-55.595095
 20
-11.249572
 11
-45.492597
 21
-11.249572
 39
0.006944
 62
1
  0
LINE
  8
BOPEN_Front
 10
-55.692594
 20
-11.715196
 11
-55.595095
 21
-11.715196
 39
0.006944
 62
1
  0
LINE
  8
BOPEN_Front
 10
-55.693844
 20
-18.461578
 11
-55.693844
 21
-18.936578
 39
0.006944
 62
1
  0
LINE
  8
BOPEN_Front
 10
-55.693844
 20
-18.936578
 11
-55.693844
 21
-18.461578
 39
0.006944
 62
1
  0
LINE
  8
BOPEN_Front
 10
-56.168845
 20
-18.936578
 11
-55.693844
 21
-18.936578
 39
0.006944
 62
1
  0
LINE
  8
BOPEN_Front
 10
-45.393845
 20
-18.461578
 11
-55.693844
 21
-18.461578
 39
0.006944
 62
1
  0
LINE
  8
BOPEN_Front
 10
-45.393845
 20
-18.461578
 11
-55.693844
 21
-18.461578
 39
0.006944
 62
1
  0
LINE
  8
BOPEN_Front
 10
-55.693844
 20
-18.936578
 11
-45.393845
 21
-18.936578
 39
0.006944
 62
1
  0
LINE
  8
BOPEN_Front
 10
-45.395097
 20
-10.308947
 11
-45.492597
 21
-10.308947
 39
0.006944
 62
1
  0
LINE
  8
BOPEN_Front
 10
-45.395097
 20
-10.308947
 11
-45.492597
 21
-10.308947
 39
0.006944
 62
1
  0
LINE
  8
BOPEN_Front
 10
-45.492597
 20
-10.308947
 11
-45.492597
 21
-10.774572
 39
0.006944
 62
1
  0
LINE
  8
BOPEN_Front
 10
-45.492597
 20
-10.308947
 11
-45.492597
 21
-10.774572
 39
0.006944
 62
1
  0
LINE
  8
BOPEN_Front
 10
-45.492597
 20
-11.249572
 11
-45.492597
 21
-10.774572
 39
0.006944
 62
1
  0
LINE
  8
BOPEN_Front
 10
-45.395097
 20
-11.715196
 11
-45.395097
 21
-10.308947
 39
0.006944
 62
1
  0
LINE
  8
BOPEN_Front
 10
-45.492597
 20
-11.249572
 11
-45.492597
 21
-11.715196
 39
0.006944
 62
1
  0
LINE
  8
BOPEN_Front
 10
-45.492597
 20
-11.249572
 11
-45.492597
 21
-11.715196
 39
0.006944
 62
1
  0
LINE
  8
BOPEN_Front
 10
-45.492597
 20
-11.715196
 11
-45.395097
 21
-11.715196
 39
0.006944
 62
1
  0
LINE
  8
BOPEN_Front
 10
-45.393845
 20
-18.936578
 11
-45.393845
 21
-18.461578
 39
0.006944
 62
1
  0
LINE
  8
BOPEN_Front
 10
-45.393845
 20
-18.461578
 11
-45.393845
 21
-18.936578
 39
0.006944
 62
1
  0
LINE
  8
BOPEN_Front
 10
-45.393845
 20
-18.936578
 11
-44.918845
 21
-18.936578
 39
0.006944
 62
1
  0
LINE
  8
BOPEN_Front
 10
-59.918844
 20
-18.936579
 11
-58.668844
 21
-18.936579
 39
0.006944
 62
1
  0
LINE
  8
BOPEN_Front
 10
-59.918844
 20
0.125921
 11
-58.668844
 21
0.125921
 39
0.006944
 62
1
  0
LINE
  8
BOPEN_Front
 10
-59.293844
 20
-18.936579
 11
-59.293844
 21
0.125921
 39
0.006944
 62
1
  0
LINE
  8
BOPEN_Front
 10
-56.168844
 20
-22.686578
 11
-56.168844
 21
-21.436578
 39
0.006944
 62
1
  0
LINE
  8
BOPEN_Front
 10
-44.918845
 20
-22.686578
 11
-44.918845
 21
-21.436578
 39
0.006944
 62
1
  0
LINE
  8
BOPEN_Front
 10
-56.168844
 20
-22.061578
 11
-44.918845
 21
-22.061578
 39
0.006944
 62
1
  0
TEXT
  8
BOPEN_Front
 10
-53.052421
 20
-21.768350
 11
-53.052421
 21
-21.768350
 40
0.937500
 41
0.45
 50
0.000000
 72
0
 73
0
 62
1
  1
WIDTH
  0
TEXT
  8
BOPEN_Front
 10
-58.339317
 20
-11.127635
 11
-58.339317
 21
-11.127635
 40
0.937500
 41
0.45
 50
90.000000
 72
0
 73
0
 62
1
  1
HEIGHT
  0
POLYLINE
  8
BOPEN_Front
 66
     1
 10
0.0
 20
0.0
 39
0.006944
 62
1
  0
VERTEX
  8
BOPEN_Front
 10
-46.828606
 20
0.784611
 62
1
  0
VERTEX
  8
BOPEN_Front
 10
-49.873591
 20
0.784611
 62
1
  0
SEQEND
  8
BOPEN_Front
  0
POLYLINE
  8
BOPEN_Front
 66
     1
 10
0.0
 20
0.0
 39
0.006944
 62
1
 70
     1
  0
VERTEX
  8
BOPEN_Front
 10
-48.936091
 20
0.597111
 62
1
  0
VERTEX
  8
BOPEN_Front
 10
-49.873591
 20
0.784611
 62
1
  0
VERTEX
  8
BOPEN_Front
 10
-48.936091
 20
0.972111
 62
1
  0
SEQEND
  8
BOPEN_Front
  0
POLYLINE
  8
BOPEN_Front
 66
     1
 10
0.0
 20
0.0
 39
0.006944
 62
1
  0
VERTEX
  8
BOPEN_Front
 10
-46.828606
 20
0.784611
 62
1
  0
VERTEX
  8
BOPEN_Front
 10
-46.828606
 20
-19.961436
 62
1
  0
VERTEX
  8
BOPEN_Front
 10
-49.940514
 20
-19.961436
 62
1
  0
SEQEND
  8
BOPEN_Front
  0
POLYLINE
  8
BOPEN_Front
 66
     1
 10
0.0
 20
0.0
 39
0.006944
 62
1
 70
     1
  0
VERTEX
  8
BOPEN_Front
 10
-49.003014
 20
-20.148936
 62
1
  0
VERTEX
  8
BOPEN_Front
 10
-49.940514
 20
-19.961436
 62
1
  0
VERTEX
  8
BOPEN_Front
 10
-49.003014
 20
-19.773936
 62
1
  0
SEQEND
  8
BOPEN_Front
  0
TEXT
  8
BOPEN_Front
 10
-50.743586
 20
0.449998
 11
-50.743586
 21
0.449998
 40
0.937500
 41
0.45
 50
0.000000
 72
0
 73
0
 62
1
  1
B
  0
TEXT
  8
BOPEN_Front
 10
-50.910893
 20
-20.396434
 11
-50.910893
 21
-20.396434
 40
0.937500
 41
0.45
 50
0.000000
 72
0
 73
0
 62
1
  1
B
  0
LINE
  8
BOPEN_3D
 10
12.298454
 20
35.402898
 11
11.957823
 21
35.356947
 39
0.006944
 62
1
  0
LINE
  8
BOPEN_3D
 10
13.355634
 20
35.073622
 11
12.298454
 21
35.402898
 39
0.006944
 62
1
  0
LINE
  8
BOPEN_3D
 10
12.298454
 20
35.402898
 11
13.355634
 21
35.073622
 39
0.006944
 62
1
  0
LINE
  8
BOPEN_3D
 10
13.355635
 20
35.073622
 11
12.298454
 21
35.402898
 39
0.006944
 62
1
  0
LINE
  8
BOPEN_3D
 10
19.321325
 20
36.350269
 11
19.037659
 21
36.312002
 39
0.006944
 62
1
  0
LINE
  8
BOPEN_3D
 10
19.037659
 20
36.312002
 11
12.298454
 21
35.402898
 39
0.006944
 62
1
  0
LINE
  8
BOPEN_3D
 10
20.190673
 20
36.036266
 11
13.355634
 21
35.073622
 39
0.006944
 62
1
  0
LINE
  8
BOPEN_3D
 10
13.355634
 20
35.073622
 11
20.190673
 21
36.036266
 39
0.006944
 62
1
  0
LINE
  8
BOPEN_3D
 10
14.227506
 20
34.802064
 11
20.188206
 21
35.671493
 39
0.006944
 62
1
  0
LINE
  8
BOPEN_3D
 10
19.065198
 20
33.111931
 11
11.957823
 21
35.356947
 39
0.006944
 62
1
  0
LINE
  8
BOPEN_3D
 10
11.957823
 20
35.356947
 11
19.065198
 21
33.111931
 39
0.006944
 62
1
  0
LINE
  8
BOPEN_3D
 10
18.007922
 20
33.624590
 11
13.355635
 21
35.073622
 39
0.006944
 62
1
  0
LINE
  8
BOPEN_3D
 10
19.435940
 20
33.179809
 11
18.007923
 21
33.624590
 39
0.006944
 62
1
  0
LINE
  8
BOPEN_3D
 10
18.007923
 20
33.624590
 11
19.435940
 21
33.179809
 39
0.006944
 62
1
  0
LINE
  8
BOPEN_3D
 10
19.439521
 20
33.178695
 11
18.007922
 21
33.624590
 39
0.006944
 62
1
  0
LINE
  8
BOPEN_3D
 10
19.072618
 20
33.109586
 11
19.065198
 21
33.111931
 39
0.006944
 62
1
  0
LINE
  8
BOPEN_3D
 10
19.070962
 20
33.112959
 11
19.065198
 21
33.111931
 39
0.006944
 62
1
  0
LINE
  8
BOPEN_3D
 10
19.065198
 20
33.111931
 11
19.072618
 21
33.109586
 39
0.006944
 62
1
  0
LINE
  8
BOPEN_3D
 10
19.065198
 20
33.111931
 11
19.070962
 21
33.112959
 39
0.006944
 62
1
  0
LINE
  8
BOPEN_3D
 10
19.070962
 20
33.112959
 11
19.065198
 21
33.111931
 39
0.006944
 62
1
  0
LINE
  8
BOPEN_3D
 10
11.957823
 20
35.356947
 11
12.750068
 21
19.660115
 39
0.006944
 62
1
  0
LINE
  8
BOPEN_3D
 10
20.190673
 20
36.036266
 11
19.037659
 21
36.312002
 39
0.006944
 62
1
  0
LINE
  8
BOPEN_3D
 10
19.037658
 20
36.312002
 11
20.190674
 21
36.036266
 39
0.006944
 62
1
  0
LINE
  8
BOPEN_3D
 10
20.190674
 20
36.036266
 11
19.037658
 21
36.312002
 39
0.006944
 62
1
  0
LINE
  8
BOPEN_3D
 10
20.188208
 20
35.671493
 11
20.190673
 21
36.036266
 39
0.006944
 62
1
  0
LINE
  8
BOPEN_3D
 10
20.190674
 20
36.036266
 11
25.196021
 21
34.839261
 39
0.006944
 62
1
  0
LINE
  8
BOPEN_3D
 10
25.196021
 20
34.839261
 11
20.190674
 21
36.036266
 39
0.006944
 62
1
  0
LINE
  8
BOPEN_3D
 10
27.014948
 20
34.529871
 11
19.321325
 21
36.350269
 39
0.006944
 62
1
  0
LINE
  8
BOPEN_3D
 10
19.335078
 20
33.848858
 11
19.336515
 21
35.547265
 39
0.006944
 62
1
  0
LINE
  8
BOPEN_3D
 10
25.196020
 20
34.839261
 11
18.007923
 21
33.624590
 39
0.006944
 62
1
  0
LINE
  8
BOPEN_3D
 10
19.445320
 20
33.179729
 11
19.439521
 21
33.178695
 39
0.006944
 62
1
  0
LINE
  8
BOPEN_3D
 10
19.439521
 20
33.178695
 11
19.446968
 21
33.176376
 39
0.006944
 62
1
  0
LINE
  8
BOPEN_3D
 10
19.439521
 20
33.178695
 11
19.439521
 21
33.178695
 39
0.006944
 62
1
  0
LINE
  8
BOPEN_3D
 10
19.446968
 20
33.176376
 11
19.439521
 21
33.178695
 39
0.006944
 62
1
  0
LINE
  8
BOPEN_3D
 10
19.446968
 20
33.176376
 11
19.446968
 21
33.176376
 39
0.006944
 62
1
  0
LINE
  8
BOPEN_3D
 10
19.445320
 20
33.179729
 11
19.439521
 21
33.178695
 39
0.006944
 62
1
  0
LINE
  8
BOPEN_3D
 10
19.439521
 20
33.178695
 11
19.435940
 21
33.179809
 39
0.006944
 62
1
  0
LINE
  8
BOPEN_3D
 10
19.435940
 20
33.179809
 11
19.439521
 21
33.178695
 39
0.006944
 62
1
  0
LINE
  8
BOPEN_3D
 10
19.439521
 20
33.178695
 11
19.445320
 21
33.179729
 39
0.006944
 62
1
  0
LINE
  8
BOPEN_3D
 10
19.072618
 20
33.109586
 11
19.446969
 21
33.176376
 39
0.006944
 62
1
  0
LINE
  8
BOPEN_3D
 10
19.446968
 20
33.176376
 11
19.439521
 21
33.178695
 39
0.006944
 62
1
  0
LINE
  8
BOPEN_3D
 10
19.446968
 20
33.176376
 11
19.446968
 21
33.176376
 39
0.006944
 62
1
  0
LINE
  8
BOPEN_3D
 10
19.439521
 20
33.178695
 11
19.070962
 21
33.112959
 39
0.006944
 62
1
  0
LINE
  8
BOPEN_3D
 10
19.446969
 20
33.176376
 11
19.072618
 21
33.109586
 39
0.006944
 62
1
  0
LINE
  8
BOPEN_3D
 10
19.070962
 20
33.112959
 11
19.439521
 21
33.178695
 39
0.006944
 62
1
  0
LINE
  8
BOPEN_3D
 10
19.439521
 20
33.178695
 11
19.070962
 21
33.112959
 39
0.006944
 62
1
  0
LINE
  8
BOPEN_3D
 10
19.446218
 20
32.719119
 11
19.446969
 21
33.176376
 39
0.006944
 62
1
  0
LINE
  8
BOPEN_3D
 10
19.446969
 20
33.176376
 11
19.446218
 21
32.719119
 39
0.006944
 62
1
  0
LINE
  8
BOPEN_3D
 10
19.446217
 20
32.719120
 11
19.446968
 21
33.176376
 39
0.006944
 62
1
  0
LINE
  8
BOPEN_3D
 10
26.714125
 20
34.476215
 11
25.196020
 21
34.839261
 39
0.006944
 62
1
  0
LINE
  8
BOPEN_3D
 10
25.196021
 20
34.839261
 11
26.714124
 21
34.476215
 39
0.006944
 62
1
  0
LINE
  8
BOPEN_3D
 10
26.714124
 20
34.476215
 11
25.196021
 21
34.839261
 39
0.006944
 62
1
  0
LINE
  8
BOPEN_3D
 10
26.714124
 20
34.476215
 11
19.445320
 21
33.179729
 39
0.006944
 62
1
  0
LINE
  8
BOPEN_3D
 10
19.446969
 20
33.176376
 11
26.721996
 21
34.474332
 39
0.006944
 62
1
  0
LINE
  8
BOPEN_3D
 10
26.721996
 20
34.474332
 11
19.446969
 21
33.176376
 39
0.006944
 62
1
  0
LINE
  8
BOPEN_3D
 10
26.714124
 20
34.476215
 11
19.445320
 21
33.179729
 39
0.006944
 62
1
  0
LINE
  8
BOPEN_3D
 10
19.445320
 20
33.179729
 11
26.714124
 21
34.476215
 39
0.006944
 62
1
  0
LINE
  8
BOPEN_3D
 10
19.446218
 20
32.719119
 11
26.700152
 21
34.058533
 39
0.006944
 62
1
  0
LINE
  8
BOPEN_3D
 10
19.756440
 20
32.333688
 11
19.764715
 21
32.362478
 39
0.006944
 62
1
  0
LINE
  8
BOPEN_3D
 10
19.764715
 20
32.362478
 11
19.756680
 21
32.396636
 39
0.006944
 62
1
  0
LINE
  8
BOPEN_3D
 10
19.756680
 20
32.396636
 11
19.737051
 21
32.416122
 39
0.006944
 62
1
  0
LINE
  8
BOPEN_3D
 10
19.737051
 20
32.416122
 11
19.717348
 21
32.409522
 39
0.006944
 62
1
  0
LINE
  8
BOPEN_3D
 10
19.717348
 20
32.409522
 11
19.709100
 21
32.380738
 39
0.006944
 62
1
  0
LINE
  8
BOPEN_3D
 10
19.709100
 20
32.380738
 11
19.717123
 21
32.346627
 39
0.006944
 62
1
  0
LINE
  8
BOPEN_3D
 10
19.717123
 20
32.346627
 11
19.736721
 21
32.327136
 39
0.006944
 62
1
  0
LINE
  8
BOPEN_3D
 10
19.736721
 20
32.327136
 11
19.756440
 21
32.333688
 39
0.006944
 62
1
  0
LINE
  8
BOPEN_3D
 10
19.762497
 20
31.794934
 11
19.754494
 21
31.828938
 39
0.006944
 62
1
  0
LINE
  8
BOPEN_3D
 10
19.754494
 20
31.828938
 11
19.734945
 21
31.848555
 39
0.006944
 62
1
  0
LINE
  8
BOPEN_3D
 10
19.734945
 20
31.848555
 11
19.715322
 21
31.842297
 39
0.006944
 62
1
  0
LINE
  8
BOPEN_3D
 10
19.715322
 20
31.842297
 11
19.707109
 21
31.813865
 39
0.006944
 62
1
  0
LINE
  8
BOPEN_3D
 10
19.707109
 20
31.813865
 11
19.715099
 21
31.779907
 39
0.006944
 62
1
  0
LINE
  8
BOPEN_3D
 10
19.754256
 20
31.766495
 11
19.762497
 21
31.794934
 39
0.006944
 62
1
  0
LINE
  8
BOPEN_3D
 10
19.715099
 20
31.779907
 11
19.734624
 21
31.760285
 39
0.006944
 62
1
  0
LINE
  8
BOPEN_3D
 10
19.734624
 20
31.760285
 11
19.754256
 21
31.766495
 39
0.006944
 62
1
  0
LINE
  8
BOPEN_3D
 10
19.760296
 20
31.231948
 11
19.752328
 21
31.265797
 39
0.006944
 62
1
  0
LINE
  8
BOPEN_3D
 10
19.752328
 20
31.265797
 11
19.732859
 21
31.285543
 39
0.006944
 62
1
  0
LINE
  8
BOPEN_3D
 10
19.732859
 20
31.285543
 11
19.713313
 21
31.279623
 39
0.006944
 62
1
  0
LINE
  8
BOPEN_3D
 10
19.713313
 20
31.279623
 11
19.705133
 21
31.251535
 39
0.006944
 62
1
  0
LINE
  8
BOPEN_3D
 10
19.752089
 20
31.203856
 11
19.760296
 21
31.231948
 39
0.006944
 62
1
  0
LINE
  8
BOPEN_3D
 10
19.705133
 20
31.251535
 11
19.713092
 21
31.217733
 39
0.006944
 62
1
  0
LINE
  8
BOPEN_3D
 10
19.713092
 20
31.217733
 11
19.732534
 21
31.197981
 39
0.006944
 62
1
  0
LINE
  8
BOPEN_3D
 10
19.732534
 20
31.197981
 11
19.752089
 21
31.203856
 39
0.006944
 62
1
  0
LINE
  8
BOPEN_3D
 10
19.750177
 20
30.707161
 11
19.730787
 21
30.727033
 39
0.006944
 62
1
  0
LINE
  8
BOPEN_3D
 10
19.730787
 20
30.727033
 11
19.711320
 21
30.721445
 39
0.006944
 62
1
  0
LINE
  8
BOPEN_3D
 10
19.711320
 20
30.721445
 11
19.703173
 21
30.693700
 39
0.006944
 62
1
  0
LINE
  8
BOPEN_3D
 10
25.800911
 20
30.998706
 11
25.813294
 21
31.031105
 39
0.006944
 62
1
  0
LINE
  8
BOPEN_3D
 10
25.813294
 20
31.031105
 11
25.804295
 21
31.070254
 39
0.006944
 62
1
  0
LINE
  8
BOPEN_3D
 10
25.804295
 20
31.070254
 11
25.779188
 21
31.093178
 39
0.006944
 62
1
  0
LINE
  8
BOPEN_3D
 10
25.779188
 20
31.093178
 11
25.752714
 21
31.086455
 39
0.006944
 62
1
  0
LINE
  8
BOPEN_3D
 10
25.752714
 20
31.086455
 11
25.740372
 21
31.054062
 39
0.006944
 62
1
  0
LINE
  8
BOPEN_3D
 10
25.740372
 20
31.054062
 11
25.749364
 21
31.014972
 39
0.006944
 62
1
  0
LINE
  8
BOPEN_3D
 10
25.749364
 20
31.014972
 11
25.774429
 21
30.992042
 39
0.006944
 62
1
  0
LINE
  8
BOPEN_3D
 10
25.774429
 20
30.992042
 11
25.800911
 21
30.998706
 39
0.006944
 62
1
  0
LINE
  8
BOPEN_3D
 10
27.022835
 20
34.528006
 11
27.014948
 21
34.529871
 39
0.006944
 62
1
  0
LINE
  8
BOPEN_3D
 10
27.014947
 20
34.529871
 11
26.722170
 21
34.477650
 39
0.006944
 62
1
  0
LINE
  8
BOPEN_3D
 10
26.721996
 20
34.474332
 11
27.022835
 21
34.528006
 39
0.006944
 62
1
  0
LINE
  8
BOPEN_3D
 10
27.022835
 20
34.528006
 11
26.721996
 21
34.474332
 39
0.006944
 62
1
  0
LINE
  8
BOPEN_3D
 10
27.014947
 20
34.529871
 11
26.722170
 21
34.477650
 39
0.006944
 62
1
  0
LINE
  8
BOPEN_3D
 10
26.722170
 20
34.477650
 11
27.014947
 21
34.529871
 39
0.006944
 62
1
  0
LINE
  8
BOPEN_3D
 10
26.721995
 20
34.474332
 11
26.714124
 21
34.476215
 39
0.006944
 62
1
  0
LINE
  8
BOPEN_3D
 10
26.721995
 20
34.474332
 11
26.721995
 21
34.474332
 39
0.006944
 62
1
  0
LINE
  8
BOPEN_3D
 10
26.700152
 20
34.058533
 11
26.721996
 21
34.474332
 39
0.006944
 62
1
  0
LINE
  8
BOPEN_3D
 10
26.700151
 20
34.058532
 11
26.721995
 21
34.474332
 39
0.006944
 62
1
  0
LINE
  8
BOPEN_3D
 10
26.721995
 20
34.474332
 11
26.714124
 21
34.476215
 39
0.006944
 62
1
  0
LINE
  8
BOPEN_3D
 10
26.721995
 20
34.474332
 11
26.721995
 21
34.474332
 39
0.006944
 62
1
  0
LINE
  8
BOPEN_3D
 10
26.720511
 20
34.477354
 11
26.714124
 21
34.476215
 39
0.006944
 62
1
  0
LINE
  8
BOPEN_3D
 10
26.722170
 20
34.477650
 11
26.720511
 21
34.477354
 39
0.006944
 62
1
  0
LINE
  8
BOPEN_3D
 10
26.714125
 20
34.476215
 11
26.721996
 21
34.474332
 39
0.006944
 62
1
  0
LINE
  8
BOPEN_3D
 10
26.721995
 20
34.474332
 11
26.700151
 21
34.058532
 39
0.006944
 62
1
  0
LINE
  8
BOPEN_3D
 10
26.720511
 20
34.477354
 11
26.714124
 21
34.476215
 39
0.006944
 62
1
  0
LINE
  8
BOPEN_3D
 10
26.722170
 20
34.477650
 11
26.720511
 21
34.477354
 39
0.006944
 62
1
  0
LINE
  8
BOPEN_3D
 10
26.720511
 20
34.477354
 11
26.722170
 21
34.477650
 39
0.006944
 62
1
  0
LINE
  8
BOPEN_3D
 10
26.714124
 20
34.476215
 11
26.720511
 21
34.477354
 39
0.006944
 62
1
  0
LINE
  8
BOPEN_3D
 10
19.749940
 20
30.645715
 11
19.758110
 21
30.673465
 39
0.006944
 62
1
  0
LINE
  8
BOPEN_3D
 10
19.758110
 20
30.673465
 11
19.750177
 21
30.707161
 39
0.006944
 62
1
  0
LINE
  8
BOPEN_3D
 10
19.703173
 20
30.693700
 11
19.711100
 21
30.660049
 39
0.006944
 62
1
  0
LINE
  8
BOPEN_3D
 10
19.711100
 20
30.660049
 11
19.730464
 21
30.640170
 39
0.006944
 62
1
  0
LINE
  8
BOPEN_3D
 10
19.730464
 20
30.640170
 11
19.749940
 21
30.645715
 39
0.006944
 62
1
  0
LINE
  8
BOPEN_3D
 10
19.728728
 20
30.172973
 11
19.709342
 21
30.167711
 39
0.006944
 62
1
  0
LINE
  8
BOPEN_3D
 10
19.747808
 20
30.092018
 11
19.755948
 21
30.119430
 39
0.006944
 62
1
  0
LINE
  8
BOPEN_3D
 10
19.755948
 20
30.119430
 11
19.748043
 21
30.152976
 39
0.006944
 62
1
  0
LINE
  8
BOPEN_3D
 10
19.748043
 20
30.152976
 11
19.728728
 21
30.172973
 39
0.006944
 62
1
  0
LINE
  8
BOPEN_3D
 10
19.709342
 20
30.167711
 11
19.701229
 21
30.140301
 39
0.006944
 62
1
  0
LINE
  8
BOPEN_3D
 10
19.701229
 20
30.140301
 11
19.709125
 21
30.106801
 39
0.006944
 62
1
  0
LINE
  8
BOPEN_3D
 10
19.709125
 20
30.106801
 11
19.728408
 21
30.086798
 39
0.006944
 62
1
  0
LINE
  8
BOPEN_3D
 10
19.728408
 20
30.086798
 11
19.747808
 21
30.092018
 39
0.006944
 62
1
  0
LINE
  8
BOPEN_3D
 10
19.745693
 20
29.542712
 11
19.753799
 21
29.569792
 39
0.006944
 62
1
  0
LINE
  8
BOPEN_3D
 10
19.753799
 20
29.569792
 11
19.745923
 21
29.603189
 39
0.006944
 62
1
  0
LINE
  8
BOPEN_3D
 10
19.745923
 20
29.603189
 11
19.726691
 21
29.623306
 39
0.006944
 62
1
  0
LINE
  8
BOPEN_3D
 10
19.726691
 20
29.623306
 11
19.707381
 21
29.618364
 39
0.006944
 62
1
  0
LINE
  8
BOPEN_3D
 10
19.707381
 20
29.618364
 11
19.699303
 21
29.591289
 39
0.006944
 62
1
  0
LINE
  8
BOPEN_3D
 10
19.699303
 20
29.591289
 11
19.707165
 21
29.557936
 39
0.006944
 62
1
  0
LINE
  8
BOPEN_3D
 10
19.707165
 20
29.557936
 11
19.726374
 21
29.537816
 39
0.006944
 62
1
  0
LINE
  8
BOPEN_3D
 10
19.726374
 20
29.537816
 11
19.745693
 21
29.542712
 39
0.006944
 62
1
  0
LINE
  8
BOPEN_3D
 10
19.743592
 20
28.997748
 11
19.751668
 21
29.024498
 39
0.006944
 62
1
  0
LINE
  8
BOPEN_3D
 10
19.751668
 20
29.024498
 11
19.743826
 21
29.057746
 39
0.006944
 62
1
  0
LINE
  8
BOPEN_3D
 10
19.743826
 20
29.057746
 11
19.724665
 21
29.077983
 39
0.006944
 62
1
  0
LINE
  8
BOPEN_3D
 10
19.724665
 20
29.077983
 11
19.705434
 21
29.073359
 39
0.006944
 62
1
  0
LINE
  8
BOPEN_3D
 10
19.705434
 20
29.073359
 11
19.697387
 21
29.046609
 39
0.006944
 62
1
  0
LINE
  8
BOPEN_3D
 10
19.697387
 20
29.046609
 11
19.705220
 21
29.013406
 39
0.006944
 62
1
  0
LINE
  8
BOPEN_3D
 10
19.705220
 20
29.013406
 11
19.724353
 21
28.993165
 39
0.006944
 62
1
  0
LINE
  8
BOPEN_3D
 10
19.724353
 20
28.993165
 11
19.743592
 21
28.997748
 39
0.006944
 62
1
  0
LINE
  8
BOPEN_3D
 10
19.619357
 20
28.642520
 11
19.563540
 21
28.629079
 39
0.006944
 62
1
  0
LINE
  8
BOPEN_3D
 10
19.563540
 20
28.629079
 11
19.769572
 21
28.542843
 39
0.006944
 62
1
  0
LINE
  8
BOPEN_3D
 10
19.825498
 20
28.556416
 11
19.619357
 21
28.642520
 39
0.006944
 62
1
  0
LINE
  8
BOPEN_3D
 10
19.769572
 20
28.542843
 11
19.563540
 21
28.629079
 39
0.006944
 62
1
  0
LINE
  8
BOPEN_3D
 10
25.748846
 20
30.448426
 11
25.722517
 21
30.442143
 39
0.006944
 62
1
  0
LINE
  8
BOPEN_3D
 10
25.770478
 20
30.354444
 11
25.782786
 21
30.386387
 39
0.006944
 62
1
  0
LINE
  8
BOPEN_3D
 10
25.782786
 20
30.386387
 11
25.773827
 21
30.425333
 39
0.006944
 62
1
  0
LINE
  8
BOPEN_3D
 10
25.773827
 20
30.425333
 11
25.748846
 21
30.448426
 39
0.006944
 62
1
  0
LINE
  8
BOPEN_3D
 10
25.722517
 20
30.442143
 11
25.710247
 21
30.410207
 39
0.006944
 62
1
  0
LINE
  8
BOPEN_3D
 10
25.710247
 20
30.410207
 11
25.719197
 21
30.371321
 39
0.006944
 62
1
  0
LINE
  8
BOPEN_3D
 10
25.719197
 20
30.371321
 11
25.744134
 21
30.348221
 39
0.006944
 62
1
  0
LINE
  8
BOPEN_3D
 10
25.744134
 20
30.348221
 11
25.770478
 21
30.354444
 39
0.006944
 62
1
  0
LINE
  8
BOPEN_3D
 10
25.740322
 20
29.716110
 11
25.752562
 21
29.747603
 39
0.006944
 62
1
  0
LINE
  8
BOPEN_3D
 10
25.752562
 20
29.747603
 11
25.743636
 21
29.786349
 39
0.006944
 62
1
  0
LINE
  8
BOPEN_3D
 10
25.743636
 20
29.786349
 11
25.718790
 21
29.809605
 39
0.006944
 62
1
  0
LINE
  8
BOPEN_3D
 10
25.718790
 20
29.809605
 11
25.692598
 21
29.803756
 39
0.006944
 62
1
  0
LINE
  8
BOPEN_3D
 10
25.692598
 20
29.803756
 11
25.680398
 21
29.772269
 39
0.006944
 62
1
  0
LINE
  8
BOPEN_3D
 10
25.680398
 20
29.772269
 11
25.689308
 21
29.733583
 39
0.006944
 62
1
  0
LINE
  8
BOPEN_3D
 10
25.689308
 20
29.733583
 11
25.714114
 21
29.710321
 39
0.006944
 62
1
  0
LINE
  8
BOPEN_3D
 10
25.714114
 20
29.710321
 11
25.740322
 21
29.716110
 39
0.006944
 62
1
  0
LINE
  8
BOPEN_3D
 10
25.710441
 20
29.083621
 11
25.722612
 21
29.114672
 39
0.006944
 62
1
  0
LINE
  8
BOPEN_3D
 10
25.722612
 20
29.114672
 11
25.713729
 21
29.153217
 39
0.006944
 62
1
  0
LINE
  8
BOPEN_3D
 10
25.713729
 20
29.153217
 11
25.689005
 21
29.176635
 39
0.006944
 62
1
  0
LINE
  8
BOPEN_3D
 10
25.689005
 20
29.176635
 11
25.662952
 21
29.171212
 39
0.006944
 62
1
  0
LINE
  8
BOPEN_3D
 10
25.662952
 20
29.171212
 11
25.650821
 21
29.140166
 39
0.006944
 62
1
  0
LINE
  8
BOPEN_3D
 10
25.650821
 20
29.140166
 11
25.659692
 21
29.101680
 39
0.006944
 62
1
  0
LINE
  8
BOPEN_3D
 10
25.659692
 20
29.101680
 11
25.684376
 21
29.078257
 39
0.006944
 62
1
  0
LINE
  8
BOPEN_3D
 10
25.684376
 20
29.078257
 11
25.710441
 21
29.083621
 39
0.006944
 62
1
  0
LINE
  8
BOPEN_3D
 10
19.563539
 20
28.629079
 11
19.562730
 21
28.311310
 39
0.006944
 62
1
  0
LINE
  8
BOPEN_3D
 10
19.562733
 20
28.311310
 11
19.439067
 21
28.364006
 39
0.006944
 62
1
  0
LINE
  8
BOPEN_3D
 10
19.769572
 20
28.542843
 11
19.825498
 21
28.556416
 39
0.006944
 62
1
  0
LINE
  8
BOPEN_3D
 10
19.769571
 20
28.542844
 11
19.768277
 21
28.223722
 39
0.006944
 62
1
  0
LINE
  8
BOPEN_3D
 10
19.823907
 20
28.200017
 11
19.825498
 21
28.556415
 39
0.006944
 62
1
  0
LINE
  8
BOPEN_3D
 10
19.825498
 20
28.556416
 11
19.769572
 21
28.542843
 39
0.006944
 62
1
  0
LINE
  8
BOPEN_3D
 10
19.768277
 20
28.223723
 11
19.769571
 21
28.542844
 39
0.006944
 62
1
  0
LINE
  8
BOPEN_3D
 10
19.768277
 20
28.223723
 11
19.562733
 21
28.311310
 39
0.006944
 62
1
  0
LINE
  8
BOPEN_3D
 10
25.383052
 20
25.831169
 11
19.768277
 21
28.223723
 39
0.006944
 62
1
  0
LINE
  8
BOPEN_3D
 10
25.680830
 20
28.456899
 11
25.692934
 21
28.487513
 39
0.006944
 62
1
  0
LINE
  8
BOPEN_3D
 10
25.692934
 20
28.487513
 11
25.684091
 21
28.525862
 39
0.006944
 62
1
  0
LINE
  8
BOPEN_3D
 10
25.684091
 20
28.525862
 11
25.659493
 21
28.549435
 39
0.006944
 62
1
  0
LINE
  8
BOPEN_3D
 10
25.659493
 20
28.549435
 11
25.633576
 21
28.544431
 39
0.006944
 62
1
  0
LINE
  8
BOPEN_3D
 10
25.633576
 20
28.544431
 11
25.621515
 21
28.513819
 39
0.006944
 62
1
  0
LINE
  8
BOPEN_3D
 10
25.621515
 20
28.513819
 11
25.630347
 21
28.475530
 39
0.006944
 62
1
  0
LINE
  8
BOPEN_3D
 10
25.630347
 20
28.475530
 11
25.654905
 21
28.451952
 39
0.006944
 62
1
  0
LINE
  8
BOPEN_3D
 10
25.654905
 20
28.451952
 11
25.680830
 21
28.456899
 39
0.006944
 62
1
  0
LINE
  8
BOPEN_3D
 10
25.651494
 20
27.835862
 11
25.663522
 21
27.866049
 39
0.006944
 62
1
  0
LINE
  8
BOPEN_3D
 10
25.663522
 20
27.866049
 11
25.654723
 21
27.904200
 39
0.006944
 62
1
  0
LINE
  8
BOPEN_3D
 10
25.654723
 20
27.904200
 11
25.630244
 21
27.927928
 39
0.006944
 62
1
  0
LINE
  8
BOPEN_3D
 10
25.630244
 20
27.927928
 11
25.604467
 21
27.923334
 39
0.006944
 62
1
  0
LINE
  8
BOPEN_3D
 10
25.604467
 20
27.923334
 11
25.592475
 21
27.893150
 39
0.006944
 62
1
  0
LINE
  8
BOPEN_3D
 10
25.592475
 20
27.893150
 11
25.601266
 21
27.855058
 39
0.006944
 62
1
  0
LINE
  8
BOPEN_3D
 10
25.601266
 20
27.855058
 11
25.625702
 21
27.831326
 39
0.006944
 62
1
  0
LINE
  8
BOPEN_3D
 10
25.625702
 20
27.831326
 11
25.651494
 21
27.835862
 39
0.006944
 62
1
  0
LINE
  8
BOPEN_3D
 10
25.622419
 20
27.220436
 11
25.634384
 21
27.250201
 39
0.006944
 62
1
  0
LINE
  8
BOPEN_3D
 10
25.634384
 20
27.250201
 11
25.625616
 21
27.288160
 39
0.006944
 62
1
  0
LINE
  8
BOPEN_3D
 10
25.625616
 20
27.288160
 11
25.601263
 21
27.312035
 39
0.006944
 62
1
  0
LINE
  8
BOPEN_3D
 10
25.601263
 20
27.312035
 11
25.575621
 21
27.307844
 39
0.006944
 62
1
  0
LINE
  8
BOPEN_3D
 10
25.575621
 20
27.307844
 11
25.563696
 21
27.278082
 39
0.006944
 62
1
  0
LINE
  8
BOPEN_3D
 10
25.563696
 20
27.278082
 11
25.572449
 21
27.240184
 39
0.006944
 62
1
  0
LINE
  8
BOPEN_3D
 10
25.572449
 20
27.240184
 11
25.596756
 21
27.216304
 39
0.006944
 62
1
  0
LINE
  8
BOPEN_3D
 10
25.596756
 20
27.216304
 11
25.622419
 21
27.220436
 39
0.006944
 62
1
  0
LINE
  8
BOPEN_3D
 10
25.952513
 20
19.828515
 11
26.700151
 21
34.058532
 39
0.006944
 62
1
  0
LINE
  8
BOPEN_3D
 10
26.692126
 20
34.057050
 11
25.945557
 21
19.832307
 39
0.006944
 62
1
  0
LINE
  8
BOPEN_3D
 10
26.700151
 20
34.058532
 11
25.952513
 21
19.828515
 39
0.006944
 62
1
  0
LINE
  8
BOPEN_3D
 10
26.692126
 20
34.057050
 11
25.945557
 21
19.832307
 39
0.006944
 62
1
  0
LINE
  8
BOPEN_3D
 10
25.945557
 20
19.832307
 11
26.692126
 21
34.057051
 39
0.006944
 62
1
  0
LINE
  8
BOPEN_3D
 10
25.596774
 20
26.677660
 11
25.572547
 21
26.701680
 39
0.006944
 62
1
  0
LINE
  8
BOPEN_3D
 10
25.572547
 20
26.701680
 11
25.547033
 21
26.697888
 39
0.006944
 62
1
  0
LINE
  8
BOPEN_3D
 10
25.547033
 20
26.697888
 11
25.535175
 21
26.668542
 39
0.006944
 62
1
  0
LINE
  8
BOPEN_3D
 10
25.593607
 20
26.610545
 11
25.605507
 21
26.639893
 39
0.006944
 62
1
  0
LINE
  8
BOPEN_3D
 10
25.605507
 20
26.639893
 11
25.596774
 21
26.677660
 39
0.006944
 62
1
  0
LINE
  8
BOPEN_3D
 10
25.535175
 20
26.668542
 11
25.543891
 21
26.630833
 39
0.006944
 62
1
  0
LINE
  8
BOPEN_3D
 10
25.543891
 20
26.630833
 11
25.568079
 21
26.606809
 39
0.006944
 62
1
  0
LINE
  8
BOPEN_3D
 10
25.568079
 20
26.606809
 11
25.593607
 21
26.610545
 39
0.006944
 62
1
  0
LINE
  8
BOPEN_3D
 10
26.207550
 20
19.602657
 11
27.022835
 21
34.528006
 39
0.006944
 62
1
  0
LINE
  8
BOPEN_3D
 10
19.082445
 20
16.756749
 11
19.065198
 21
33.111931
 39
0.006944
 62
1
  0
LINE
  8
BOPEN_3D
 10
19.065198
 20
33.111931
 11
19.082445
 21
16.756749
 39
0.006944
 62
1
  0
LINE
  8
BOPEN_3D
 10
19.089009
 20
16.752098
 11
19.072618
 21
33.109586
 39
0.006944
 62
1
  0
LINE
  8
BOPEN_3D
 10
19.072618
 20
33.109586
 11
19.089009
 21
16.752098
 39
0.006944
 62
1
  0
LINE
  8
BOPEN_3D
 10
19.065198
 20
33.111931
 11
19.082445
 21
16.756749
 39
0.006944
 62
1
  0
LINE
  8
BOPEN_3D
 10
12.750068
 20
19.660115
 11
18.414730
 21
15.392517
 39
0.006944
 62
1
  0
LINE
  8
BOPEN_3D
 10
18.402806
 20
17.238293
 11
19.082445
 21
16.756749
 39
0.006944
 62
1
  0
LINE
  8
BOPEN_3D
 10
19.082445
 20
16.756749
 11
19.089009
 21
16.752098
 39
0.006944
 62
1
  0
LINE
  8
BOPEN_3D
 10
18.414730
 20
15.392517
 11
18.402806
 21
17.238293
 39
0.006944
 62
1
  0
LINE
  8
BOPEN_3D
 10
18.738676
 20
15.526985
 11
18.733003
 21
17.004339
 39
0.006944
 62
1
  0
LINE
  8
BOPEN_3D
 10
18.733003
 20
17.004339
 11
18.738676
 21
15.526985
 39
0.006944
 62
1
  0
LINE
  8
BOPEN_3D
 10
18.402806
 20
17.238293
 11
18.414730
 21
15.392517
 39
0.006944
 62
1
  0
LINE
  8
BOPEN_3D
 10
18.738676
 20
15.526985
 11
18.733003
 21
17.004339
 39
0.006944
 62
1
  0
LINE
  8
BOPEN_3D
 10
18.414730
 20
15.392517
 11
18.738675
 21
15.526985
 39
0.006944
 62
1
  0
LINE
  8
BOPEN_3D
 10
19.420806
 20
17.245009
 11
19.446217
 21
32.719120
 39
0.006944
 62
1
  0
LINE
  8
BOPEN_3D
 10
26.002173
 20
25.567350
 11
19.431131
 21
23.531103
 39
0.006944
 62
1
  0
LINE
  8
BOPEN_3D
 10
19.431117
 20
23.525234
 11
26.009429
 21
25.564259
 39
0.006944
 62
1
  0
LINE
  8
BOPEN_3D
 10
26.009429
 20
25.564259
 11
19.431121
 21
23.525234
 39
0.006944
 62
1
  0
LINE
  8
BOPEN_3D
 10
26.002173
 20
25.567350
 11
19.431131
 21
23.531103
 39
0.006944
 62
1
  0
LINE
  8
BOPEN_3D
 10
19.431131
 20
23.531103
 11
26.002173
 21
25.567350
 39
0.006944
 62
1
  0
LINE
  8
BOPEN_3D
 10
25.457848
 20
26.203826
 11
25.399373
 21
26.186404
 39
0.006944
 62
1
  0
LINE
  8
BOPEN_3D
 10
25.399374
 20
26.186405
 11
25.383052
 21
25.831166
 39
0.006944
 62
1
  0
LINE
  8
BOPEN_3D
 10
25.399373
 20
26.186404
 11
25.666629
 21
26.074540
 39
0.006944
 62
1
  0
LINE
  8
BOPEN_3D
 10
25.725198
 20
26.092154
 11
25.457848
 21
26.203826
 39
0.006944
 62
1
  0
LINE
  8
BOPEN_3D
 10
25.666629
 20
26.074540
 11
25.399373
 21
26.186404
 39
0.006944
 62
1
  0
LINE
  8
BOPEN_3D
 10
25.666629
 20
26.074540
 11
25.725198
 21
26.092154
 39
0.006944
 62
1
  0
LINE
  8
BOPEN_3D
 10
25.666630
 20
26.074541
 11
25.649506
 21
25.717627
 39
0.006944
 62
1
  0
LINE
  8
BOPEN_3D
 10
25.705907
 20
25.693592
 11
25.725199
 21
26.092154
 39
0.006944
 62
1
  0
LINE
  8
BOPEN_3D
 10
25.725198
 20
26.092154
 11
25.666629
 21
26.074540
 39
0.006944
 62
1
  0
LINE
  8
BOPEN_3D
 10
25.649506
 20
25.717627
 11
25.666630
 21
26.074541
 39
0.006944
 62
1
  0
LINE
  8
BOPEN_3D
 10
25.649506
 20
25.717629
 11
25.383052
 21
25.831169
 39
0.006944
 62
1
  0
LINE
  8
BOPEN_3D
 10
26.000159
 20
25.568209
 11
25.649506
 21
25.717629
 39
0.006944
 62
1
  0
LINE
  8
BOPEN_3D
 10
26.009429
 20
25.564260
 11
26.002174
 21
25.567351
 39
0.006944
 62
1
  0
LINE
  8
BOPEN_3D
 10
25.990943
 20
25.199830
 11
26.009429
 21
25.564260
 39
0.006944
 62
1
  0
LINE
  8
BOPEN_3D
 10
26.002173
 20
25.567350
 11
26.000159
 21
25.568209
 39
0.006944
 62
1
  0
LINE
  8
BOPEN_3D
 10
25.487912
 20
24.903118
 11
25.462793
 21
24.900473
 39
0.006944
 62
1
  0
LINE
  8
BOPEN_3D
 10
25.462793
 20
24.900473
 11
25.451131
 21
24.872337
 39
0.006944
 62
1
  0
LINE
  8
BOPEN_3D
 10
25.451131
 20
24.872337
 11
25.459734
 21
24.835191
 39
0.006944
 62
1
  0
LINE
  8
BOPEN_3D
 10
25.459734
 20
24.835191
 11
25.483569
 21
24.810751
 39
0.006944
 62
1
  0
LINE
  8
BOPEN_3D
 10
25.673341
 20
25.020769
 11
25.677218
 21
25.100904
 39
0.006944
 62
1
  0
LINE
  8
BOPEN_3D
 10
25.619039
 20
25.082557
 11
25.615192
 21
25.002367
 39
0.006944
 62
1
  0
LINE
  8
BOPEN_3D
 10
25.615193
 20
25.002366
 11
25.673339
 21
25.020768
 39
0.006944
 62
1
  0
LINE
  8
BOPEN_3D
 10
25.510807
 20
25.048429
 11
25.615192
 21
25.002367
 39
0.006944
 62
1
  0
LINE
  8
BOPEN_3D
 10
25.615192
 20
25.002367
 11
25.619039
 21
25.082557
 39
0.006944
 62
1
  0
LINE
  8
BOPEN_3D
 10
25.508702
 20
24.813341
 11
25.520398
 21
24.841480
 39
0.006944
 62
1
  0
LINE
  8
BOPEN_3D
 10
25.520398
 20
24.841480
 11
25.511789
 21
24.878680
 39
0.006944
 62
1
  0
LINE
  8
BOPEN_3D
 10
25.511789
 20
24.878680
 11
25.487912
 21
24.903118
 39
0.006944
 62
1
  0
LINE
  8
BOPEN_3D
 10
25.483569
 20
24.810751
 11
25.508702
 21
24.813341
 39
0.006944
 62
1
  0
LINE
  8
BOPEN_3D
 10
25.483960
 20
24.289621
 11
25.460200
 21
24.314188
 39
0.006944
 62
1
  0
LINE
  8
BOPEN_3D
 10
25.460200
 20
24.314188
 11
25.435209
 21
24.311914
 39
0.006944
 62
1
  0
LINE
  8
BOPEN_3D
 10
25.435209
 20
24.311914
 11
25.423611
 21
24.284171
 39
0.006944
 62
1
  0
LINE
  8
BOPEN_3D
 10
25.423611
 20
24.284171
 11
25.432177
 21
24.247206
 39
0.006944
 62
1
  0
LINE
  8
BOPEN_3D
 10
25.480901
 20
24.224856
 11
25.492536
 21
24.252601
 39
0.006944
 62
1
  0
LINE
  8
BOPEN_3D
 10
25.492536
 20
24.252601
 11
25.483960
 21
24.289621
 39
0.006944
 62
1
  0
LINE
  8
BOPEN_3D
 10
19.430472
 20
23.131098
 11
25.990943
 21
25.199831
 39
0.006944
 62
1
  0
LINE
  8
BOPEN_3D
 10
25.432177
 20
24.247206
 11
25.455892
 21
24.222638
 39
0.006944
 62
1
  0
LINE
  8
BOPEN_3D
 10
25.455892
 20
24.222638
 11
25.480901
 21
24.224856
 39
0.006944
 62
1
  0
LINE
  8
BOPEN_3D
 10
25.456377
 20
23.705743
 11
25.432735
 21
23.730441
 39
0.006944
 62
1
  0
LINE
  8
BOPEN_3D
 10
25.432735
 20
23.730441
 11
25.407868
 21
23.728530
 39
0.006944
 62
1
  0
LINE
  8
BOPEN_3D
 10
25.407868
 20
23.728530
 11
25.396332
 21
23.701170
 39
0.006944
 62
1
  0
LINE
  8
BOPEN_3D
 10
25.453344
 20
23.641549
 11
25.464916
 21
23.668908
 39
0.006944
 62
1
  0
LINE
  8
BOPEN_3D
 10
25.464916
 20
23.668908
 11
25.456377
 21
23.705743
 39
0.006944
 62
1
  0
LINE
  8
BOPEN_3D
 10
25.396332
 20
23.701170
 11
25.404861
 21
23.664390
 39
0.006944
 62
1
  0
LINE
  8
BOPEN_3D
 10
25.404861
 20
23.664390
 11
25.428465
 21
23.639693
 39
0.006944
 62
1
  0
LINE
  8
BOPEN_3D
 10
25.428465
 20
23.639693
 11
25.453344
 21
23.641549
 39
0.006944
 62
1
  0
LINE
  8
BOPEN_3D
 10
25.426025
 20
23.063349
 11
25.437537
 21
23.090326
 39
0.006944
 62
1
  0
LINE
  8
BOPEN_3D
 10
25.437537
 20
23.090326
 11
25.429034
 21
23.126982
 39
0.006944
 62
1
  0
LINE
  8
BOPEN_3D
 10
25.429034
 20
23.126982
 11
25.405508
 21
23.151804
 39
0.006944
 62
1
  0
LINE
  8
BOPEN_3D
 10
25.405508
 20
23.151804
 11
25.380765
 21
23.150252
 39
0.006944
 62
1
  0
LINE
  8
BOPEN_3D
 10
25.380765
 20
23.150252
 11
25.369293
 21
23.123272
 39
0.006944
 62
1
  0
LINE
  8
BOPEN_3D
 10
25.369293
 20
23.123272
 11
25.377785
 21
23.086669
 39
0.006944
 62
1
  0
LINE
  8
BOPEN_3D
 10
25.377785
 20
23.086669
 11
25.401275
 21
23.061849
 39
0.006944
 62
1
  0
LINE
  8
BOPEN_3D
 10
25.401275
 20
23.061849
 11
25.426025
 21
23.063349
 39
0.006944
 62
1
  0
LINE
  8
BOPEN_3D
 10
25.398951
 20
22.490189
 11
25.410394
 21
22.516795
 39
0.006944
 62
1
  0
LINE
  8
BOPEN_3D
 10
25.410394
 20
22.516795
 11
25.401931
 21
22.553268
 39
0.006944
 62
1
  0
LINE
  8
BOPEN_3D
 10
25.401931
 20
22.553268
 11
25.378514
 21
22.578214
 39
0.006944
 62
1
  0
LINE
  8
BOPEN_3D
 10
25.378514
 20
22.578214
 11
25.353899
 21
22.577011
 39
0.006944
 62
1
  0
LINE
  8
BOPEN_3D
 10
25.353899
 20
22.577011
 11
25.342489
 21
22.550405
 39
0.006944
 62
1
  0
LINE
  8
BOPEN_3D
 10
25.342489
 20
22.550405
 11
25.350942
 21
22.513983
 39
0.006944
 62
1
  0
LINE
  8
BOPEN_3D
 10
25.350942
 20
22.513983
 11
25.374322
 21
22.489041
 39
0.006944
 62
1
  0
LINE
  8
BOPEN_3D
 10
25.374322
 20
22.489041
 11
25.398951
 21
22.490189
 39
0.006944
 62
1
  0
LINE
  8
BOPEN_3D
 10
25.945560
 20
19.832305
 11
19.722277
 21
23.223114
 39
0.006944
 62
1
  0
LINE
  8
BOPEN_3D
 10
19.420809
 20
17.245007
 11
25.952513
 21
19.828518
 39
0.006944
 62
1
  0
LINE
  8
BOPEN_3D
 10
25.945560
 20
19.832305
 11
19.420819
 21
17.252190
 39
0.006944
 62
1
  0
LINE
  8
BOPEN_3D
 10
25.952513
 20
19.828518
 11
19.420809
 21
17.245007
 39
0.006944
 62
1
  0
LINE
  8
BOPEN_3D
 10
25.945560
 20
19.832305
 11
19.420819
 21
17.252190
 39
0.006944
 62
1
  0
LINE
  8
BOPEN_3D
 10
19.420816
 20
17.252192
 11
25.945560
 21
19.832305
 39
0.006944
 62
1
  0
LINE
  8
BOPEN_3D
 10
19.420214
 20
16.884727
 11
25.934911
 21
19.493484
 39
0.006944
 62
1
  0
LINE
  8
BOPEN_3D
 10
25.952510
 20
19.828519
 11
25.945560
 21
19.832305
 39
0.006944
 62
1
  0
LINE
  8
BOPEN_3D
 10
25.952513
 20
19.828517
 11
25.952510
 21
19.828519
 39
0.006944
 62
1
  0
LINE
  8
BOPEN_3D
 10
25.934911
 20
19.493484
 11
25.952513
 21
19.828518
 39
0.006944
 62
1
  0
LINE
  8
BOPEN_3D
 10
25.934910
 20
19.493485
 11
25.952513
 21
19.828515
 39
0.006944
 62
1
  0
LINE
  8
BOPEN_3D
 10
25.952513
 20
19.828515
 11
25.934910
 21
19.493485
 39
0.006944
 62
1
  0
LINE
  8
BOPEN_3D
 10
25.934911
 20
19.493484
 11
26.207550
 21
19.602657
 39
0.006944
 62
1
  0
LINE
  8
BOPEN_3D
 10
25.128926
 20
18.179545
 11
25.176115
 21
19.189631
 39
0.006944
 62
1
  0
LINE
  8
BOPEN_3D
 10
25.397121
 20
18.290870
 11
25.446249
 21
19.297804
 39
0.006944
 62
1
  0
LINE
  8
BOPEN_3D
 10
25.176115
 20
19.189631
 11
25.128926
 21
18.179545
 39
0.006944
 62
1
  0
LINE
  8
BOPEN_3D
 10
25.128926
 20
18.179545
 11
25.176115
 21
19.189631
 39
0.006944
 62
1
  0
LINE
  8
BOPEN_3D
 10
25.128925
 20
18.179544
 11
25.397122
 21
18.290869
 39
0.006944
 62
1
  0
LINE
  8
BOPEN_3D
 10
19.420809
 20
17.245007
 11
19.420806
 21
17.245009
 39
0.006944
 62
1
  0
LINE
  8
BOPEN_3D
 10
19.420806
 20
17.245009
 11
19.420809
 21
17.245007
 39
0.006944
 62
1
  0
LINE
  8
BOPEN_3D
 10
19.420214
 20
16.884727
 11
19.420809
 21
17.245007
 39
0.006944
 62
1
  0
LINE
  8
BOPEN_3D
 10
19.420809
 20
17.245007
 11
19.420214
 21
16.884727
 39
0.006944
 62
1
  0
LINE
  8
BOPEN_3D
 10
19.420215
 20
16.884727
 11
19.420806
 21
17.245009
 39
0.006944
 62
1
  0
LINE
  8
BOPEN_3D
 10
19.089009
 20
16.752098
 11
19.420214
 21
16.884727
 39
0.006944
 62
1
  0
LINE
  8
BOPEN_3D
 10
18.738675
 20
15.526985
 11
25.128925
 21
18.179544
 39
0.006944
 62
1
  0
LINE
  8
BOPEN_End
 10
-7.959694
 20
37.251530
 11
-7.959694
 21
37.251530
 39
0.006944
 62
1
  0
LINE
  8
BOPEN_End
 10
-7.959695
 20
37.251530
 11
-7.972194
 21
37.251530
 39
0.006944
 62
1
  0
LINE
  8
BOPEN_End
 10
-7.959694
 20
37.251530
 11
-7.959695
 21
37.251530
 39
0.006944
 62
1
  0
LINE
  8
BOPEN_End
 10
-7.972194
 20
37.251530
 11
-7.972194
 21
37.251530
 39
0.006944
 62
1
  0
LINE
  8
BOPEN_End
 10
-7.972194
 20
37.251530
 11
-7.959694
 21
37.251530
 39
0.006944
 62
1
  0
LINE
  8
BOPEN_End
 10
-7.959694
 20
37.251530
 11
-7.959694
 21
37.251530
 39
0.006944
 62
1
  0
LINE
  8
BOPEN_End
 10
-7.972194
 20
37.251530
 11
-7.972194
 21
37.251530
 39
0.006944
 62
1
  0
LINE
  8
BOPEN_End
 10
-7.959694
 20
37.251530
 11
-7.959694
 21
37.251530
 39
0.006944
 62
1
  0
LINE
  8
BOPEN_End
 10
-7.959694
 20
37.251530
 11
-7.959694
 21
37.251530
 39
0.006944
 62
1
  0
LINE
  8
BOPEN_End
 10
-7.972194
 20
37.251530
 11
-7.972194
 21
37.251530
 39
0.006944
 62
1
  0
LINE
  8
BOPEN_End
 10
-7.972194
 20
37.251530
 11
-7.959694
 21
37.251530
 39
0.006944
 62
1
  0
LINE
  8
BOPEN_End
 10
-7.959694
 20
37.251530
 11
-7.959694
 21
37.251530
 39
0.006944
 62
1
  0
LINE
  8
BOPEN_End
 10
-7.959695
 20
37.251530
 11
-7.972194
 21
37.251530
 39
0.006944
 62
1
  0
LINE
  8
BOPEN_End
 10
-7.959694
 20
37.251530
 11
-7.959695
 21
37.251530
 39
0.006944
 62
1
  0
LINE
  8
BOPEN_End
 10
-7.959695
 20
37.251530
 11
-7.972194
 21
37.251530
 39
0.006944
 62
1
  0
LINE
  8
BOPEN_End
 10
-7.959694
 20
37.251530
 11
-7.959695
 21
37.251530
 39
0.006944
 62
1
  0
LINE
  8
BOPEN_End
 10
-7.959694
 20
37.251530
 11
-7.959694
 21
37.251530
 39
0.006944
 62
1
  0
LINE
  8
BOPEN_End
 10
-7.972194
 20
37.251530
 11
-7.972194
 21
37.251530
 39
0.006944
 62
1
  0
LINE
  8
BOPEN_End
 10
-7.959694
 20
37.251530
 11
-7.959694
 21
37.251530
 39
0.006944
 62
1
  0
LINE
  8
BOPEN_End
 10
-7.959694
 20
37.251530
 11
-7.959694
 21
37.251530
 39
0.006944
 62
1
  0
LINE
  8
BOPEN_End
 10
-7.959694
 20
37.251530
 11
-7.959694
 21
36.776529
 39
0.006944
 62
1
  0
LINE
  8
BOPEN_End
 10
-7.959694
 20
37.251530
 11
-7.959694
 21
36.776529
 39
0.006944
 62
1
  0
LINE
  8
BOPEN_End
 10
-7.972194
 20
36.776529
 11
-7.972194
 21
37.251530
 39
0.006944
 62
1
  0
LINE
  8
BOPEN_End
 10
-7.959694
 20
36.776529
 11
-7.959694
 21
37.251530
 39
0.006944
 62
1
  0
LINE
  8
BOPEN_End
 10
-7.972194
 20
37.251530
 11
-7.972194
 21
36.776529
 39
0.006944
 62
1
  0
LINE
  8
BOPEN_End
 10
-7.581803
 20
36.941824
 11
-7.611710
 21
37.014032
 39
0.006944
 62
1
  0
LINE
  8
BOPEN_End
 10
-7.611710
 20
37.014032
 11
-7.581803
 21
37.086237
 39
0.006944
 62
1
  0
LINE
  8
BOPEN_End
 10
-7.959694
 20
37.251530
 11
-7.959694
 21
36.776529
 39
0.006944
 62
1
  0
LINE
  8
BOPEN_End
 10
-7.959694
 20
36.776529
 11
-7.959694
 21
37.251530
 39
0.006944
 62
1
  0
LINE
  8
BOPEN_End
 10
-7.581803
 20
37.086237
 11
-7.611710
 21
37.014032
 39
0.006944
 62
1
  0
LINE
  8
BOPEN_End
 10
-7.611710
 20
37.014032
 11
-7.581803
 21
36.941824
 39
0.006944
 62
1
  0
LINE
  8
BOPEN_End
 10
-7.972194
 20
37.251530
 11
-7.972194
 21
36.776529
 39
0.006944
 62
1
  0
LINE
  8
BOPEN_End
 10
-7.959694
 20
36.776529
 11
-7.959694
 21
37.251530
 39
0.006944
 62
1
  0
LINE
  8
BOPEN_End
 10
-7.959694
 20
37.251530
 11
-7.959694
 21
36.776529
 39
0.006944
 62
1
  0
LINE
  8
BOPEN_End
 10
-7.972194
 20
37.251530
 11
-7.972194
 21
36.776529
 39
0.006944
 62
1
  0
LINE
  8
BOPEN_End
 10
-7.972194
 20
36.776529
 11
-7.972194
 21
37.251530
 39
0.006944
 62
1
  0
LINE
  8
BOPEN_End
 10
-7.959694
 20
36.776529
 11
-7.959694
 21
37.251530
 39
0.006944
 62
1
  0
LINE
  8
BOPEN_End
 10
-7.437388
 20
36.941824
 11
-7.509597
 21
36.911912
 39
0.006944
 62
1
  0
LINE
  8
BOPEN_End
 10
-7.509597
 20
36.911912
 11
-7.581803
 21
36.941824
 39
0.006944
 62
1
  0
LINE
  8
BOPEN_End
 10
-7.581803
 20
37.086237
 11
-7.509597
 21
37.116146
 39
0.006944
 62
1
  0
LINE
  8
BOPEN_End
 10
-7.509597
 20
37.116146
 11
-7.437388
 21
37.086237
 39
0.006944
 62
1
  0
LINE
  8
BOPEN_End
 10
-7.437388
 20
37.086237
 11
-7.407481
 21
37.014032
 39
0.006944
 62
1
  0
LINE
  8
BOPEN_End
 10
-7.407481
 20
37.014032
 11
-7.437388
 21
36.941824
 39
0.006944
 62
1
  0
LINE
  8
BOPEN_End
 10
-7.437388
 20
37.086237
 11
-7.509597
 21
37.116146
 39
0.006944
 62
1
  0
LINE
  8
BOPEN_End
 10
-7.509597
 20
37.116146
 11
-7.581803
 21
37.086237
 39
0.006944
 62
1
  0
LINE
  8
BOPEN_End
 10
-7.581803
 20
36.941824
 11
-7.509597
 21
36.911912
 39
0.006944
 62
1
  0
LINE
  8
BOPEN_End
 10
-7.509597
 20
36.911912
 11
-7.437388
 21
36.941824
 39
0.006944
 62
1
  0
LINE
  8
BOPEN_End
 10
-7.437388
 20
36.941824
 11
-7.407481
 21
37.014032
 39
0.006944
 62
1
  0
LINE
  8
BOPEN_End
 10
-7.407481
 20
37.014032
 11
-7.437388
 21
37.086237
 39
0.006944
 62
1
  0
LINE
  8
BOPEN_End
 10
-7.972194
 20
36.776529
 11
-7.972194
 21
36.776529
 39
0.006944
 62
1
  0
LINE
  8
BOPEN_End
 10
-7.972194
 20
36.776529
 11
-7.959694
 21
36.776529
 39
0.006944
 62
1
  0
LINE
  8
BOPEN_End
 10
-7.959694
 20
36.776529
 11
-7.959694
 21
36.776529
 39
0.006944
 62
1
  0
LINE
  8
BOPEN_End
 10
-7.959695
 20
36.776529
 11
-7.972194
 21
36.776529
 39
0.006944
 62
1
  0
LINE
  8
BOPEN_End
 10
-7.959694
 20
36.776529
 11
-7.959695
 21
36.776529
 39
0.006944
 62
1
  0
LINE
  8
BOPEN_End
 10
-7.959694
 20
36.776529
 11
-7.959694
 21
36.776529
 39
0.006944
 62
1
  0
LINE
  8
BOPEN_End
 10
-7.972194
 20
36.776529
 11
-7.972194
 21
36.776529
 39
0.006944
 62
1
  0
LINE
  8
BOPEN_End
 10
-7.959694
 20
36.776529
 11
-7.959694
 21
36.776529
 39
0.006944
 62
1
  0
LINE
  8
BOPEN_End
 10
-7.959694
 20
36.776529
 11
-7.959694
 21
36.776529
 39
0.006944
 62
1
  0
LINE
  8
BOPEN_End
 10
-5.472193
 20
37.251530
 11
-7.959694
 21
37.251530
 39
0.006944
 62
1
  0
LINE
  8
BOPEN_End
 10
-7.959694
 20
37.251530
 11
-5.472193
 21
37.251530
 39
0.006944
 62
1
  0
LINE
  8
BOPEN_End
 10
-5.472193
 20
37.251530
 11
-7.959694
 21
37.251530
 39
0.006944
 62
1
  0
LINE
  8
BOPEN_End
 10
-5.472193
 20
37.251530
 11
-7.959694
 21
37.251530
 39
0.006944
 62
1
  0
LINE
  8
BOPEN_End
 10
-7.959694
 20
37.251530
 11
-5.472193
 21
37.251530
 39
0.006944
 62
1
  0
LINE
  8
BOPEN_End
 10
-5.472193
 20
37.251530
 11
-5.472193
 21
37.251530
 39
0.006944
 62
1
  0
LINE
  8
BOPEN_End
 10
-5.472193
 20
37.251530
 11
-5.472193
 21
37.251530
 39
0.006944
 62
1
  0
LINE
  8
BOPEN_End
 10
-6.007001
 20
36.941824
 11
-6.036908
 21
37.014032
 39
0.006944
 62
1
  0
LINE
  8
BOPEN_End
 10
-6.036908
 20
37.014032
 11
-6.007001
 21
37.086237
 39
0.006944
 62
1
  0
LINE
  8
BOPEN_End
 10
-6.007001
 20
37.086237
 11
-6.036908
 21
37.014032
 39
0.006944
 62
1
  0
LINE
  8
BOPEN_End
 10
-6.036908
 20
37.014032
 11
-6.007001
 21
36.941824
 39
0.006944
 62
1
  0
LINE
  8
BOPEN_End
 10
-5.472193
 20
36.776529
 11
-7.959694
 21
36.776529
 39
0.006944
 62
1
  0
LINE
  8
BOPEN_End
 10
-7.959694
 20
36.776529
 11
-5.472193
 21
36.776529
 39
0.006944
 62
1
  0
LINE
  8
BOPEN_End
 10
-5.862586
 20
36.941824
 11
-5.934792
 21
36.911912
 39
0.006944
 62
1
  0
LINE
  8
BOPEN_End
 10
-5.934792
 20
36.911912
 11
-6.007001
 21
36.941824
 39
0.006944
 62
1
  0
LINE
  8
BOPEN_End
 10
-6.007001
 20
37.086237
 11
-5.934792
 21
37.116146
 39
0.006944
 62
1
  0
LINE
  8
BOPEN_End
 10
-5.934792
 20
37.116146
 11
-5.862586
 21
37.086237
 39
0.006944
 62
1
  0
LINE
  8
BOPEN_End
 10
-5.862586
 20
37.086237
 11
-5.832676
 21
37.014032
 39
0.006944
 62
1
  0
LINE
  8
BOPEN_End
 10
-5.832676
 20
37.014032
 11
-5.862586
 21
36.941824
 39
0.006944
 62
1
  0
LINE
  8
BOPEN_End
 10
-5.472193
 20
36.776529
 11
-5.472193
 21
37.251530
 39
0.006944
 62
1
  0
LINE
  8
BOPEN_End
 10
-5.472193
 20
37.251530
 11
-5.472193
 21
36.776529
 39
0.006944
 62
1
  0
LINE
  8
BOPEN_End
 10
-5.862586
 20
37.086237
 11
-5.934792
 21
37.116146
 39
0.006944
 62
1
  0
LINE
  8
BOPEN_End
 10
-5.934792
 20
37.116146
 11
-6.007001
 21
37.086237
 39
0.006944
 62
1
  0
LINE
  8
BOPEN_End
 10
-6.007001
 20
36.941824
 11
-5.934792
 21
36.911912
 39
0.006944
 62
1
  0
LINE
  8
BOPEN_End
 10
-5.934792
 20
36.911912
 11
-5.862586
 21
36.941824
 39
0.006944
 62
1
  0
LINE
  8
BOPEN_End
 10
-5.862586
 20
36.941824
 11
-5.832676
 21
37.014032
 39
0.006944
 62
1
  0
LINE
  8
BOPEN_End
 10
-5.832676
 20
37.014032
 11
-5.862586
 21
37.086237
 39
0.006944
 62
1
  0
LINE
  8
BOPEN_End
 10
-5.472193
 20
36.776529
 11
-5.472193
 21
36.776529
 39
0.006944
 62
1
  0
LINE
  8
BOPEN_End
 10
-5.472193
 20
36.776529
 11
-5.472193
 21
36.776529
 39
0.006944
 62
1
  0
LINE
  8
BOPEN_End
 10
3.980931
 20
37.251530
 11
-5.472193
 21
37.251530
 39
0.006944
 62
1
  0
LINE
  8
BOPEN_End
 10
3.980931
 20
37.251530
 11
-5.472193
 21
37.251530
 39
0.006944
 62
1
  0
LINE
  8
BOPEN_End
 10
-5.472193
 20
37.251530
 11
3.980931
 21
37.251530
 39
0.006944
 62
1
  0
LINE
  8
BOPEN_End
 10
-6.678696
 20
32.919155
 11
-6.660678
 21
32.962652
 39
0.006944
 62
1
  0
LINE
  8
BOPEN_End
 10
-6.660678
 20
32.962652
 11
-6.678696
 21
33.006150
 39
0.006944
 62
1
  0
LINE
  8
BOPEN_End
 10
-6.678696
 20
33.006150
 11
-6.722193
 21
33.024168
 39
0.006944
 62
1
  0
LINE
  8
BOPEN_End
 10
-6.722193
 20
33.024168
 11
-6.765693
 21
33.006150
 39
0.006944
 62
1
  0
LINE
  8
BOPEN_End
 10
-6.765693
 20
33.006150
 11
-6.783711
 21
32.962652
 39
0.006944
 62
1
  0
LINE
  8
BOPEN_End
 10
-6.783711
 20
32.962652
 11
-6.765693
 21
32.919155
 39
0.006944
 62
1
  0
LINE
  8
BOPEN_End
 10
-6.765693
 20
32.919155
 11
-6.722193
 21
32.901137
 39
0.006944
 62
1
  0
LINE
  8
BOPEN_End
 10
-6.722193
 20
32.901137
 11
-6.678696
 21
32.919155
 39
0.006944
 62
1
  0
LINE
  8
BOPEN_End
 10
-6.660678
 20
32.175250
 11
-6.678696
 21
32.218749
 39
0.006944
 62
1
  0
LINE
  8
BOPEN_End
 10
-6.678696
 20
32.218749
 11
-6.722193
 21
32.236765
 39
0.006944
 62
1
  0
LINE
  8
BOPEN_End
 10
-6.722193
 20
32.236765
 11
-6.765693
 21
32.218749
 39
0.006944
 62
1
  0
LINE
  8
BOPEN_End
 10
-6.765693
 20
32.218749
 11
-6.783711
 21
32.175250
 39
0.006944
 62
1
  0
LINE
  8
BOPEN_End
 10
-6.678696
 20
32.131753
 11
-6.660678
 21
32.175250
 39
0.006944
 62
1
  0
LINE
  8
BOPEN_End
 10
-6.783711
 20
32.175250
 11
-6.765693
 21
32.131753
 39
0.006944
 62
1
  0
LINE
  8
BOPEN_End
 10
-6.765693
 20
32.131753
 11
-6.722193
 21
32.113735
 39
0.006944
 62
1
  0
LINE
  8
BOPEN_End
 10
-6.722193
 20
32.113735
 11
-6.678696
 21
32.131753
 39
0.006944
 62
1
  0
LINE
  8
BOPEN_End
 10
-6.678696
 20
31.344350
 11
-6.660678
 21
31.387849
 39
0.006944
 62
1
  0
LINE
  8
BOPEN_End
 10
-6.660678
 20
31.387849
 11
-6.678696
 21
31.431348
 39
0.006944
 62
1
  0
LINE
  8
BOPEN_End
 10
-6.678696
 20
31.431348
 11
-6.722193
 21
31.449365
 39
0.006944
 62
1
  0
LINE
  8
BOPEN_End
 10
-6.722193
 20
31.449365
 11
-6.765693
 21
31.431348
 39
0.006944
 62
1
  0
LINE
  8
BOPEN_End
 10
-6.765693
 20
31.431348
 11
-6.783711
 21
31.387849
 39
0.006944
 62
1
  0
LINE
  8
BOPEN_End
 10
-6.783711
 20
31.387849
 11
-6.765693
 21
31.344350
 39
0.006944
 62
1
  0
LINE
  8
BOPEN_End
 10
-6.765693
 20
31.344350
 11
-6.722193
 21
31.326334
 39
0.006944
 62
1
  0
LINE
  8
BOPEN_End
 10
-6.722193
 20
31.326334
 11
-6.678696
 21
31.344350
 39
0.006944
 62
1
  0
LINE
  8
BOPEN_End
 10
-6.678696
 20
30.556949
 11
-6.660678
 21
30.600447
 39
0.006944
 62
1
  0
LINE
  8
BOPEN_End
 10
-6.660678
 20
30.600447
 11
-6.678696
 21
30.643945
 39
0.006944
 62
1
  0
LINE
  8
BOPEN_End
 10
-6.678696
 20
30.643945
 11
-6.722193
 21
30.661964
 39
0.006944
 62
1
  0
LINE
  8
BOPEN_End
 10
-6.722193
 20
30.661964
 11
-6.765693
 21
30.643945
 39
0.006944
 62
1
  0
LINE
  8
BOPEN_End
 10
-6.765693
 20
30.643945
 11
-6.783711
 21
30.600447
 39
0.006944
 62
1
  0
LINE
  8
BOPEN_End
 10
-6.783711
 20
30.600447
 11
-6.765693
 21
30.556949
 39
0.006944
 62
1
  0
LINE
  8
BOPEN_End
 10
-6.765693
 20
30.556949
 11
-6.722193
 21
30.538931
 39
0.006944
 62
1
  0
LINE
  8
BOPEN_End
 10
-6.722193
 20
30.538931
 11
-6.678696
 21
30.556949
 39
0.006944
 62
1
  0
LINE
  8
BOPEN_End
 10
-6.678696
 20
29.769547
 11
-6.660678
 21
29.813046
 39
0.006944
 62
1
  0
LINE
  8
BOPEN_End
 10
-6.660678
 20
29.813046
 11
-6.678696
 21
29.856544
 39
0.006944
 62
1
  0
LINE
  8
BOPEN_End
 10
-6.678696
 20
29.856544
 11
-6.722193
 21
29.874562
 39
0.006944
 62
1
  0
LINE
  8
BOPEN_End
 10
-6.722193
 20
29.874562
 11
-6.765693
 21
29.856544
 39
0.006944
 62
1
  0
LINE
  8
BOPEN_End
 10
-6.765693
 20
29.856544
 11
-6.783711
 21
29.813046
 39
0.006944
 62
1
  0
LINE
  8
BOPEN_End
 10
-6.783711
 20
29.813046
 11
-6.765693
 21
29.769547
 39
0.006944
 62
1
  0
LINE
  8
BOPEN_End
 10
-6.765693
 20
29.769547
 11
-6.722193
 21
29.751530
 39
0.006944
 62
1
  0
LINE
  8
BOPEN_End
 10
-6.722193
 20
29.751530
 11
-6.678696
 21
29.769547
 39
0.006944
 62
1
  0
LINE
  8
BOPEN_End
 10
-6.678696
 20
28.982146
 11
-6.660678
 21
29.025645
 39
0.006944
 62
1
  0
LINE
  8
BOPEN_End
 10
-6.660678
 20
29.025645
 11
-6.678696
 21
29.069143
 39
0.006944
 62
1
  0
LINE
  8
BOPEN_End
 10
-6.678696
 20
29.069143
 11
-6.722193
 21
29.087160
 39
0.006944
 62
1
  0
LINE
  8
BOPEN_End
 10
-6.722193
 20
29.087160
 11
-6.765693
 21
29.069143
 39
0.006944
 62
1
  0
LINE
  8
BOPEN_End
 10
-6.765693
 20
29.069143
 11
-6.783711
 21
29.025645
 39
0.006944
 62
1
  0
LINE
  8
BOPEN_End
 10
-6.783711
 20
29.025645
 11
-6.765693
 21
28.982146
 39
0.006944
 62
1
  0
LINE
  8
BOPEN_End
 10
-6.765693
 20
28.982146
 11
-6.722193
 21
28.964129
 39
0.006944
 62
1
  0
LINE
  8
BOPEN_End
 10
-6.722193
 20
28.964129
 11
-6.678696
 21
28.982146
 39
0.006944
 62
1
  0
LINE
  8
BOPEN_End
 10
-6.678696
 20
28.194744
 11
-6.660678
 21
28.238242
 39
0.006944
 62
1
  0
LINE
  8
BOPEN_End
 10
-6.660678
 20
28.238242
 11
-6.678696
 21
28.281742
 39
0.006944
 62
1
  0
LINE
  8
BOPEN_End
 10
-6.678696
 20
28.281742
 11
-6.722193
 21
28.299759
 39
0.006944
 62
1
  0
LINE
  8
BOPEN_End
 10
-6.722193
 20
28.299759
 11
-6.765693
 21
28.281742
 39
0.006944
 62
1
  0
LINE
  8
BOPEN_End
 10
-6.765693
 20
28.281742
 11
-6.783711
 21
28.238242
 39
0.006944
 62
1
  0
LINE
  8
BOPEN_End
 10
-6.783711
 20
28.238242
 11
-6.765693
 21
28.194744
 39
0.006944
 62
1
  0
LINE
  8
BOPEN_End
 10
-6.765693
 20
28.194744
 11
-6.722193
 21
28.176728
 39
0.006944
 62
1
  0
LINE
  8
BOPEN_End
 10
-6.722193
 20
28.176728
 11
-6.678696
 21
28.194744
 39
0.006944
 62
1
  0
LINE
  8
BOPEN_End
 10
-7.959694
 20
36.776529
 11
-7.959694
 21
18.664032
 39
0.006944
 62
1
  0
LINE
  8
BOPEN_End
 10
-7.972194
 20
36.776529
 11
-7.972194
 21
18.664032
 39
0.006944
 62
1
  0
LINE
  8
BOPEN_End
 10
-7.959694
 20
18.664032
 11
-7.959694
 21
36.776529
 39
0.006944
 62
1
  0
LINE
  8
BOPEN_End
 10
-7.959694
 20
36.776529
 11
-7.959694
 21
18.664032
 39
0.006944
 62
1
  0
LINE
  8
BOPEN_End
 10
-7.972194
 20
36.776529
 11
-7.972194
 21
18.664032
 39
0.006944
 62
1
  0
LINE
  8
BOPEN_End
 10
-7.972194
 20
18.664032
 11
-7.972194
 21
36.776529
 39
0.006944
 62
1
  0
LINE
  8
BOPEN_End
 10
-7.959694
 20
18.664032
 11
-7.959694
 21
36.776529
 39
0.006944
 62
1
  0
LINE
  8
BOPEN_End
 10
-6.678696
 20
27.407343
 11
-6.660678
 21
27.450841
 39
0.006944
 62
1
  0
LINE
  8
BOPEN_End
 10
-6.660678
 20
27.450841
 11
-6.678696
 21
27.494339
 39
0.006944
 62
1
  0
LINE
  8
BOPEN_End
 10
-6.678696
 20
27.494339
 11
-6.722193
 21
27.512358
 39
0.006944
 62
1
  0
LINE
  8
BOPEN_End
 10
-6.722193
 20
27.512358
 11
-6.765693
 21
27.494339
 39
0.006944
 62
1
  0
LINE
  8
BOPEN_End
 10
-6.765693
 20
27.494339
 11
-6.783711
 21
27.450841
 39
0.006944
 62
1
  0
LINE
  8
BOPEN_End
 10
-6.783711
 20
27.450841
 11
-6.765693
 21
27.407343
 39
0.006944
 62
1
  0
LINE
  8
BOPEN_End
 10
-6.765693
 20
27.407343
 11
-6.722193
 21
27.389325
 39
0.006944
 62
1
  0
LINE
  8
BOPEN_End
 10
-6.722193
 20
27.389325
 11
-6.678696
 21
27.407343
 39
0.006944
 62
1
  0
LINE
  8
BOPEN_End
 10
-6.565944
 20
26.816663
 11
-6.565944
 21
26.816663
 39
0.006944
 62
1
  0
LINE
  8
BOPEN_End
 10
-6.565944
 20
26.816663
 11
-7.034694
 21
26.816663
 39
0.006944
 62
1
  0
LINE
  8
BOPEN_End
 10
-7.034694
 20
26.816663
 11
-7.034694
 21
26.816663
 39
0.006944
 62
1
  0
LINE
  8
BOPEN_End
 10
-7.034694
 20
26.816663
 11
-6.565944
 21
26.816663
 39
0.006944
 62
1
  0
LINE
  8
BOPEN_End
 10
-6.565944
 20
26.816663
 11
-6.565944
 21
26.816663
 39
0.006944
 62
1
  0
LINE
  8
BOPEN_End
 10
-7.034694
 20
26.816663
 11
-7.034694
 21
26.816663
 39
0.006944
 62
1
  0
LINE
  8
BOPEN_End
 10
-6.565944
 20
26.816663
 11
-7.034694
 21
26.816663
 39
0.006944
 62
1
  0
LINE
  8
BOPEN_End
 10
-6.565944
 20
26.816663
 11
-6.565944
 21
26.351039
 39
0.006944
 62
1
  0
LINE
  8
BOPEN_End
 10
-7.034694
 20
26.816663
 11
-7.034694
 21
26.351039
 39
0.006944
 62
1
  0
LINE
  8
BOPEN_End
 10
-7.034694
 20
26.351039
 11
-7.034694
 21
26.816663
 39
0.006944
 62
1
  0
LINE
  8
BOPEN_End
 10
-7.034694
 20
26.816663
 11
-7.034694
 21
26.351039
 39
0.006944
 62
1
  0
LINE
  8
BOPEN_End
 10
-6.565944
 20
26.351039
 11
-6.565944
 21
26.816663
 39
0.006944
 62
1
  0
LINE
  8
BOPEN_End
 10
3.980931
 20
37.251530
 11
3.980931
 21
37.251530
 39
0.006944
 62
1
  0
LINE
  8
BOPEN_End
 10
3.980931
 20
37.251530
 11
3.980931
 21
37.251530
 39
0.006944
 62
1
  0
LINE
  8
BOPEN_End
 10
6.480931
 20
37.251530
 11
3.980931
 21
37.251530
 39
0.006944
 62
1
  0
LINE
  8
BOPEN_End
 10
3.980931
 20
37.251530
 11
6.480931
 21
37.251530
 39
0.006944
 62
1
  0
LINE
  8
BOPEN_End
 10
6.480931
 20
37.251530
 11
3.980931
 21
37.251530
 39
0.006944
 62
1
  0
LINE
  8
BOPEN_End
 10
6.480931
 20
37.251530
 11
3.980931
 21
37.251530
 39
0.006944
 62
1
  0
LINE
  8
BOPEN_End
 10
3.980931
 20
37.251530
 11
6.480931
 21
37.251530
 39
0.006944
 62
1
  0
LINE
  8
BOPEN_End
 10
4.359485
 20
36.941824
 11
4.287278
 21
36.911912
 39
0.006944
 62
1
  0
LINE
  8
BOPEN_End
 10
4.287278
 20
36.911912
 11
4.215072
 21
36.941824
 39
0.006944
 62
1
  0
LINE
  8
BOPEN_End
 10
4.215072
 20
36.941824
 11
4.185164
 21
37.014032
 39
0.006944
 62
1
  0
LINE
  8
BOPEN_End
 10
4.185164
 20
37.014032
 11
4.215072
 21
37.086237
 39
0.006944
 62
1
  0
LINE
  8
BOPEN_End
 10
4.215072
 20
37.086237
 11
4.287278
 21
37.116146
 39
0.006944
 62
1
  0
LINE
  8
BOPEN_End
 10
4.287278
 20
37.116146
 11
4.359485
 21
37.086237
 39
0.006944
 62
1
  0
LINE
  8
BOPEN_End
 10
4.359485
 20
37.086237
 11
4.389397
 21
37.014032
 39
0.006944
 62
1
  0
LINE
  8
BOPEN_End
 10
4.389397
 20
37.014032
 11
4.359485
 21
36.941824
 39
0.006944
 62
1
  0
LINE
  8
BOPEN_End
 10
3.980931
 20
37.251530
 11
3.980931
 21
36.776529
 39
0.006944
 62
1
  0
LINE
  8
BOPEN_End
 10
3.980931
 20
36.776529
 11
3.980931
 21
37.251530
 39
0.006944
 62
1
  0
LINE
  8
BOPEN_End
 10
4.359485
 20
37.086237
 11
4.287278
 21
37.116146
 39
0.006944
 62
1
  0
LINE
  8
BOPEN_End
 10
4.287278
 20
37.116146
 11
4.215072
 21
37.086237
 39
0.006944
 62
1
  0
LINE
  8
BOPEN_End
 10
4.215072
 20
37.086237
 11
4.185164
 21
37.014032
 39
0.006944
 62
1
  0
LINE
  8
BOPEN_End
 10
4.185164
 20
37.014032
 11
4.215072
 21
36.941824
 39
0.006944
 62
1
  0
LINE
  8
BOPEN_End
 10
4.215072
 20
36.941824
 11
4.287278
 21
36.911912
 39
0.006944
 62
1
  0
LINE
  8
BOPEN_End
 10
4.287278
 20
36.911912
 11
4.359485
 21
36.941824
 39
0.006944
 62
1
  0
LINE
  8
BOPEN_End
 10
4.359485
 20
36.941824
 11
4.389397
 21
37.014032
 39
0.006944
 62
1
  0
LINE
  8
BOPEN_End
 10
4.389397
 20
37.014032
 11
4.359485
 21
37.086237
 39
0.006944
 62
1
  0
LINE
  8
BOPEN_End
 10
3.980931
 20
36.776529
 11
3.980931
 21
36.776529
 39
0.006944
 62
1
  0
LINE
  8
BOPEN_End
 10
3.980931
 20
36.776529
 11
3.980931
 21
36.776529
 39
0.006944
 62
1
  0
LINE
  8
BOPEN_End
 10
5.549582
 20
36.911912
 11
5.477375
 21
36.941824
 39
0.006944
 62
1
  0
LINE
  8
BOPEN_End
 10
5.477375
 20
36.941824
 11
5.447464
 21
37.014032
 39
0.006944
 62
1
  0
LINE
  8
BOPEN_End
 10
5.447464
 20
37.014032
 11
5.477375
 21
37.086237
 39
0.006944
 62
1
  0
LINE
  8
BOPEN_End
 10
5.477375
 20
37.086237
 11
5.549582
 21
37.116146
 39
0.006944
 62
1
  0
LINE
  8
BOPEN_End
 10
5.549582
 20
37.116146
 11
5.477375
 21
37.086237
 39
0.006944
 62
1
  0
LINE
  8
BOPEN_End
 10
5.477375
 20
37.086237
 11
5.447464
 21
37.014032
 39
0.006944
 62
1
  0
LINE
  8
BOPEN_End
 10
5.447464
 20
37.014032
 11
5.477375
 21
36.941824
 39
0.006944
 62
1
  0
LINE
  8
BOPEN_End
 10
5.477375
 20
36.941824
 11
5.549582
 21
36.911912
 39
0.006944
 62
1
  0
LINE
  8
BOPEN_End
 10
5.818430
 20
36.776529
 11
3.980931
 21
36.776529
 39
0.006944
 62
1
  0
LINE
  8
BOPEN_End
 10
3.980931
 20
36.776529
 11
5.818430
 21
36.776529
 39
0.006944
 62
1
  0
LINE
  8
BOPEN_End
 10
6.480931
 20
37.251530
 11
6.480931
 21
37.251530
 39
0.006944
 62
1
  0
LINE
  8
BOPEN_End
 10
6.480931
 20
37.251530
 11
6.480931
 21
37.251530
 39
0.006944
 62
1
  0
LINE
  8
BOPEN_End
 10
6.480931
 20
37.251530
 11
6.480931
 21
37.251530
 39
0.006944
 62
1
  0
LINE
  8
BOPEN_End
 10
6.480931
 20
37.251530
 11
6.480931
 21
37.251530
 39
0.006944
 62
1
  0
LINE
  8
BOPEN_End
 10
5.621789
 20
36.941824
 11
5.549582
 21
36.911912
 39
0.006944
 62
1
  0
LINE
  8
BOPEN_End
 10
5.549582
 20
37.116146
 11
5.621789
 21
37.086237
 39
0.006944
 62
1
  0
LINE
  8
BOPEN_End
 10
5.621789
 20
37.086237
 11
5.651697
 21
37.014032
 39
0.006944
 62
1
  0
LINE
  8
BOPEN_End
 10
5.651697
 20
37.014032
 11
5.621789
 21
36.941824
 39
0.006944
 62
1
  0
LINE
  8
BOPEN_End
 10
5.818430
 20
36.907780
 11
5.818430
 21
36.907780
 39
0.006944
 62
1
  0
LINE
  8
BOPEN_End
 10
5.621789
 20
37.086237
 11
5.549582
 21
37.116146
 39
0.006944
 62
1
  0
LINE
  8
BOPEN_End
 10
5.549582
 20
36.911912
 11
5.621789
 21
36.941824
 39
0.006944
 62
1
  0
LINE
  8
BOPEN_End
 10
5.621789
 20
36.941824
 11
5.651697
 21
37.014032
 39
0.006944
 62
1
  0
LINE
  8
BOPEN_End
 10
5.651697
 20
37.014032
 11
5.621789
 21
37.086237
 39
0.006944
 62
1
  0
LINE
  8
BOPEN_End
 10
6.480931
 20
36.776529
 11
6.480931
 21
37.251530
 39
0.006944
 62
1
  0
LINE
  8
BOPEN_End
 10
6.480931
 20
36.776529
 11
6.480931
 21
37.251530
 39
0.006944
 62
1
  0
LINE
  8
BOPEN_End
 10
6.480931
 20
37.251530
 11
6.480931
 21
36.776529
 39
0.006944
 62
1
  0
LINE
  8
BOPEN_End
 10
6.149680
 20
36.907780
 11
6.149680
 21
36.907780
 39
0.006944
 62
1
  0
LINE
  8
BOPEN_End
 10
6.480931
 20
37.251530
 11
6.480931
 21
36.776529
 39
0.006944
 62
1
  0
LINE
  8
BOPEN_End
 10
5.818430
 20
36.776529
 11
5.818430
 21
36.776529
 39
0.006944
 62
1
  0
LINE
  8
BOPEN_End
 10
6.130929
 20
36.776529
 11
5.818430
 21
36.776529
 39
0.006944
 62
1
  0
LINE
  8
BOPEN_End
 10
5.818430
 20
36.776529
 11
6.130929
 21
36.776529
 39
0.006944
 62
1
  0
LINE
  8
BOPEN_End
 10
5.818430
 20
36.882780
 11
5.818430
 21
36.882780
 39
0.006944
 62
1
  0
LINE
  8
BOPEN_End
 10
5.818430
 20
36.882780
 11
5.818430
 21
36.882780
 39
0.006944
 62
1
  0
LINE
  8
BOPEN_End
 10
6.130929
 20
36.882780
 11
5.818430
 21
36.882780
 39
0.006944
 62
1
  0
LINE
  8
BOPEN_End
 10
5.818430
 20
36.882780
 11
5.818430
 21
36.776529
 39
0.006944
 62
1
  0
LINE
  8
BOPEN_End
 10
6.149680
 20
36.776529
 11
6.149680
 21
36.776529
 39
0.006944
 62
1
  0
LINE
  8
BOPEN_End
 10
6.480931
 20
36.776529
 11
6.480931
 21
36.776529
 39
0.006944
 62
1
  0
LINE
  8
BOPEN_End
 10
6.149680
 20
36.776529
 11
6.130929
 21
36.776529
 39
0.006944
 62
1
  0
LINE
  8
BOPEN_End
 10
6.462179
 20
36.776529
 11
6.149680
 21
36.776529
 39
0.006944
 62
1
  0
LINE
  8
BOPEN_End
 10
6.480931
 20
36.776529
 11
6.462179
 21
36.776529
 39
0.006944
 62
1
  0
LINE
  8
BOPEN_End
 10
6.462179
 20
36.776529
 11
6.480931
 21
36.776529
 39
0.006944
 62
1
  0
LINE
  8
BOPEN_End
 10
6.149680
 20
36.776529
 11
6.462179
 21
36.776529
 39
0.006944
 62
1
  0
LINE
  8
BOPEN_End
 10
6.130929
 20
36.776529
 11
6.149680
 21
36.776529
 39
0.006944
 62
1
  0
LINE
  8
BOPEN_End
 10
6.480931
 20
36.776529
 11
6.480931
 21
36.776529
 39
0.006944
 62
1
  0
LINE
  8
BOPEN_End
 10
6.462179
 20
36.776529
 11
6.462179
 21
36.776529
 39
0.006944
 62
1
  0
LINE
  8
BOPEN_End
 10
6.462179
 20
36.776529
 11
6.149680
 21
36.776529
 39
0.006944
 62
1
  0
LINE
  8
BOPEN_End
 10
6.149680
 20
36.776529
 11
6.149680
 21
36.776529
 39
0.006944
 62
1
  0
LINE
  8
BOPEN_End
 10
6.149680
 20
36.776529
 11
6.462179
 21
36.776529
 39
0.006944
 62
1
  0
LINE
  8
BOPEN_End
 10
6.462179
 20
36.776529
 11
6.462179
 21
36.776529
 39
0.006944
 62
1
  0
LINE
  8
BOPEN_End
 10
6.149680
 20
36.776529
 11
6.149680
 21
36.776529
 39
0.006944
 62
1
  0
LINE
  8
BOPEN_End
 10
6.130929
 20
36.882780
 11
6.130929
 21
36.882780
 39
0.006944
 62
1
  0
LINE
  8
BOPEN_End
 10
6.130929
 20
36.882780
 11
6.130929
 21
36.882780
 39
0.006944
 62
1
  0
LINE
  8
BOPEN_End
 10
6.149680
 20
36.882780
 11
6.130929
 21
36.882780
 39
0.006944
 62
1
  0
LINE
  8
BOPEN_End
 10
6.149680
 20
36.776529
 11
6.149680
 21
36.882780
 39
0.006944
 62
1
  0
LINE
  8
BOPEN_End
 10
6.462179
 20
36.776529
 11
6.462179
 21
34.276530
 39
0.006944
 62
1
  0
LINE
  8
BOPEN_End
 10
6.149680
 20
34.276530
 11
6.149680
 21
36.776529
 39
0.006944
 62
1
  0
LINE
  8
BOPEN_End
 10
6.462179
 20
34.276530
 11
6.462179
 21
36.776529
 39
0.006944
 62
1
  0
LINE
  8
BOPEN_End
 10
6.149680
 20
36.776529
 11
6.149680
 21
34.276530
 39
0.006944
 62
1
  0
LINE
  8
BOPEN_End
 10
6.149680
 20
34.276530
 11
6.149680
 21
36.776529
 39
0.006944
 62
1
  0
LINE
  8
BOPEN_End
 10
6.149680
 20
34.276530
 11
6.149680
 21
34.276530
 39
0.006944
 62
1
  0
LINE
  8
BOPEN_End
 10
6.149680
 20
34.276530
 11
6.462179
 21
34.276530
 39
0.006944
 62
1
  0
LINE
  8
BOPEN_End
 10
6.462179
 20
34.276530
 11
6.462179
 21
34.276530
 39
0.006944
 62
1
  0
LINE
  8
BOPEN_End
 10
6.462179
 20
34.276530
 11
6.149680
 21
34.276530
 39
0.006944
 62
1
  0
LINE
  8
BOPEN_End
 10
6.462179
 20
34.276530
 11
6.462179
 21
34.276530
 39
0.006944
 62
1
  0
LINE
  8
BOPEN_End
 10
6.149680
 20
34.276530
 11
6.149680
 21
34.276530
 39
0.006944
 62
1
  0
LINE
  8
BOPEN_End
 10
4.961927
 20
32.919155
 11
4.979948
 21
32.962652
 39
0.006944
 62
1
  0
LINE
  8
BOPEN_End
 10
4.979948
 20
32.962652
 11
4.961927
 21
33.006150
 39
0.006944
 62
1
  0
LINE
  8
BOPEN_End
 10
4.961927
 20
33.006150
 11
4.918428
 21
33.024168
 39
0.006944
 62
1
  0
LINE
  8
BOPEN_End
 10
4.918428
 20
33.024168
 11
4.874933
 21
33.006150
 39
0.006944
 62
1
  0
LINE
  8
BOPEN_End
 10
4.874933
 20
33.006150
 11
4.856913
 21
32.962652
 39
0.006944
 62
1
  0
LINE
  8
BOPEN_End
 10
4.856913
 20
32.962652
 11
4.874933
 21
32.919155
 39
0.006944
 62
1
  0
LINE
  8
BOPEN_End
 10
4.874933
 20
32.919155
 11
4.918428
 21
32.901137
 39
0.006944
 62
1
  0
LINE
  8
BOPEN_End
 10
4.918428
 20
32.901137
 11
4.961927
 21
32.919155
 39
0.006944
 62
1
  0
LINE
  8
BOPEN_End
 10
4.979948
 20
32.175250
 11
4.961927
 21
32.218749
 39
0.006944
 62
1
  0
LINE
  8
BOPEN_End
 10
4.961927
 20
32.218749
 11
4.918428
 21
32.236765
 39
0.006944
 62
1
  0
LINE
  8
BOPEN_End
 10
4.918428
 20
32.236765
 11
4.874933
 21
32.218749
 39
0.006944
 62
1
  0
LINE
  8
BOPEN_End
 10
4.874933
 20
32.218749
 11
4.856913
 21
32.175250
 39
0.006944
 62
1
  0
LINE
  8
BOPEN_End
 10
4.961927
 20
32.131753
 11
4.979948
 21
32.175250
 39
0.006944
 62
1
  0
LINE
  8
BOPEN_End
 10
4.856913
 20
32.175250
 11
4.874933
 21
32.131753
 39
0.006944
 62
1
  0
LINE
  8
BOPEN_End
 10
4.874933
 20
32.131753
 11
4.918428
 21
32.113735
 39
0.006944
 62
1
  0
LINE
  8
BOPEN_End
 10
4.918428
 20
32.113735
 11
4.961927
 21
32.131753
 39
0.006944
 62
1
  0
LINE
  8
BOPEN_End
 10
5.818430
 20
36.776529
 11
5.818430
 21
26.351039
 39
0.006944
 62
1
  0
LINE
  8
BOPEN_End
 10
4.961927
 20
31.344350
 11
4.979948
 21
31.387849
 39
0.006944
 62
1
  0
LINE
  8
BOPEN_End
 10
4.979948
 20
31.387849
 11
4.961927
 21
31.431348
 39
0.006944
 62
1
  0
LINE
  8
BOPEN_End
 10
4.961927
 20
31.431348
 11
4.918428
 21
31.449365
 39
0.006944
 62
1
  0
LINE
  8
BOPEN_End
 10
4.918428
 20
31.449365
 11
4.874933
 21
31.431348
 39
0.006944
 62
1
  0
LINE
  8
BOPEN_End
 10
4.874933
 20
31.431348
 11
4.856913
 21
31.387849
 39
0.006944
 62
1
  0
LINE
  8
BOPEN_End
 10
4.856913
 20
31.387849
 11
4.874933
 21
31.344350
 39
0.006944
 62
1
  0
LINE
  8
BOPEN_End
 10
4.874933
 20
31.344350
 11
4.918428
 21
31.326334
 39
0.006944
 62
1
  0
LINE
  8
BOPEN_End
 10
4.918428
 20
31.326334
 11
4.961927
 21
31.344350
 39
0.006944
 62
1
  0
LINE
  8
BOPEN_End
 10
4.961927
 20
30.556949
 11
4.979948
 21
30.600447
 39
0.006944
 62
1
  0
LINE
  8
BOPEN_End
 10
4.979948
 20
30.600447
 11
4.961927
 21
30.643945
 39
0.006944
 62
1
  0
LINE
  8
BOPEN_End
 10
4.961927
 20
30.643945
 11
4.918428
 21
30.661964
 39
0.006944
 62
1
  0
LINE
  8
BOPEN_End
 10
4.918428
 20
30.661964
 11
4.874933
 21
30.643945
 39
0.006944
 62
1
  0
LINE
  8
BOPEN_End
 10
4.874933
 20
30.643945
 11
4.856913
 21
30.600447
 39
0.006944
 62
1
  0
LINE
  8
BOPEN_End
 10
4.856913
 20
30.600447
 11
4.874933
 21
30.556949
 39
0.006944
 62
1
  0
LINE
  8
BOPEN_End
 10
4.874933
 20
30.556949
 11
4.918428
 21
30.538931
 39
0.006944
 62
1
  0
LINE
  8
BOPEN_End
 10
4.918428
 20
30.538931
 11
4.961927
 21
30.556949
 39
0.006944
 62
1
  0
LINE
  8
BOPEN_End
 10
4.961927
 20
29.769547
 11
4.979948
 21
29.813046
 39
0.006944
 62
1
  0
LINE
  8
BOPEN_End
 10
4.979948
 20
29.813046
 11
4.961927
 21
29.856544
 39
0.006944
 62
1
  0
LINE
  8
BOPEN_End
 10
4.961927
 20
29.856544
 11
4.918428
 21
29.874562
 39
0.006944
 62
1
  0
LINE
  8
BOPEN_End
 10
4.918428
 20
29.874562
 11
4.874933
 21
29.856544
 39
0.006944
 62
1
  0
LINE
  8
BOPEN_End
 10
4.874933
 20
29.856544
 11
4.856913
 21
29.813046
 39
0.006944
 62
1
  0
LINE
  8
BOPEN_End
 10
4.856913
 20
29.813046
 11
4.874933
 21
29.769547
 39
0.006944
 62
1
  0
LINE
  8
BOPEN_End
 10
4.874933
 20
29.769547
 11
4.918428
 21
29.751530
 39
0.006944
 62
1
  0
LINE
  8
BOPEN_End
 10
4.918428
 20
29.751530
 11
4.961927
 21
29.769547
 39
0.006944
 62
1
  0
LINE
  8
BOPEN_End
 10
4.961927
 20
28.982146
 11
4.979948
 21
29.025645
 39
0.006944
 62
1
  0
LINE
  8
BOPEN_End
 10
4.979948
 20
29.025645
 11
4.961927
 21
29.069143
 39
0.006944
 62
1
  0
LINE
  8
BOPEN_End
 10
4.961927
 20
29.069143
 11
4.918428
 21
29.087160
 39
0.006944
 62
1
  0
LINE
  8
BOPEN_End
 10
4.918428
 20
29.087160
 11
4.874933
 21
29.069143
 39
0.006944
 62
1
  0
LINE
  8
BOPEN_End
 10
4.874933
 20
29.069143
 11
4.856913
 21
29.025645
 39
0.006944
 62
1
  0
LINE
  8
BOPEN_End
 10
4.856913
 20
29.025645
 11
4.874933
 21
28.982146
 39
0.006944
 62
1
  0
LINE
  8
BOPEN_End
 10
4.874933
 20
28.982146
 11
4.918428
 21
28.964129
 39
0.006944
 62
1
  0
LINE
  8
BOPEN_End
 10
4.918428
 20
28.964129
 11
4.961927
 21
28.982146
 39
0.006944
 62
1
  0
LINE
  8
BOPEN_End
 10
4.961927
 20
28.194744
 11
4.979948
 21
28.238242
 39
0.006944
 62
1
  0
LINE
  8
BOPEN_End
 10
4.979948
 20
28.238242
 11
4.961927
 21
28.281742
 39
0.006944
 62
1
  0
LINE
  8
BOPEN_End
 10
4.961927
 20
28.281742
 11
4.918428
 21
28.299759
 39
0.006944
 62
1
  0
LINE
  8
BOPEN_End
 10
4.918428
 20
28.299759
 11
4.874933
 21
28.281742
 39
0.006944
 62
1
  0
LINE
  8
BOPEN_End
 10
4.874933
 20
28.281742
 11
4.856913
 21
28.238242
 39
0.006944
 62
1
  0
LINE
  8
BOPEN_End
 10
4.856913
 20
28.238242
 11
4.874933
 21
28.194744
 39
0.006944
 62
1
  0
LINE
  8
BOPEN_End
 10
4.874933
 20
28.194744
 11
4.918428
 21
28.176728
 39
0.006944
 62
1
  0
LINE
  8
BOPEN_End
 10
4.918428
 20
28.176728
 11
4.961927
 21
28.194744
 39
0.006944
 62
1
  0
LINE
  8
BOPEN_End
 10
4.961927
 20
27.407343
 11
4.979948
 21
27.450841
 39
0.006944
 62
1
  0
LINE
  8
BOPEN_End
 10
4.979948
 20
27.450841
 11
4.961927
 21
27.494339
 39
0.006944
 62
1
  0
LINE
  8
BOPEN_End
 10
4.961927
 20
27.494339
 11
4.918428
 21
27.512358
 39
0.006944
 62
1
  0
LINE
  8
BOPEN_End
 10
4.918428
 20
27.512358
 11
4.874933
 21
27.494339
 39
0.006944
 62
1
  0
LINE
  8
BOPEN_End
 10
4.874933
 20
27.494339
 11
4.856913
 21
27.450841
 39
0.006944
 62
1
  0
LINE
  8
BOPEN_End
 10
4.856913
 20
27.450841
 11
4.874933
 21
27.407343
 39
0.006944
 62
1
  0
LINE
  8
BOPEN_End
 10
4.874933
 20
27.407343
 11
4.918428
 21
27.389325
 39
0.006944
 62
1
  0
LINE
  8
BOPEN_End
 10
4.918428
 20
27.389325
 11
4.961927
 21
27.407343
 39
0.006944
 62
1
  0
LINE
  8
BOPEN_End
 10
5.152805
 20
26.816663
 11
4.684056
 21
26.816663
 39
0.006944
 62
1
  0
LINE
  8
BOPEN_End
 10
4.684056
 20
26.816663
 11
4.684056
 21
26.816663
 39
0.006944
 62
1
  0
LINE
  8
BOPEN_End
 10
4.684056
 20
26.816663
 11
5.152805
 21
26.816663
 39
0.006944
 62
1
  0
LINE
  8
BOPEN_End
 10
4.684056
 20
26.816663
 11
4.684056
 21
26.816663
 39
0.006944
 62
1
  0
LINE
  8
BOPEN_End
 10
5.152805
 20
26.816663
 11
4.684056
 21
26.816663
 39
0.006944
 62
1
  0
LINE
  8
BOPEN_End
 10
5.152805
 20
26.816663
 11
5.152805
 21
26.816663
 39
0.006944
 62
1
  0
LINE
  8
BOPEN_End
 10
5.152805
 20
26.816663
 11
5.152805
 21
26.816663
 39
0.006944
 62
1
  0
LINE
  8
BOPEN_End
 10
4.684056
 20
26.816663
 11
4.684056
 21
26.351039
 39
0.006944
 62
1
  0
LINE
  8
BOPEN_End
 10
4.684056
 20
26.351039
 11
4.684056
 21
26.816663
 39
0.006944
 62
1
  0
LINE
  8
BOPEN_End
 10
4.684056
 20
26.816663
 11
4.684056
 21
26.351039
 39
0.006944
 62
1
  0
LINE
  8
BOPEN_End
 10
5.152805
 20
26.816663
 11
5.152805
 21
26.351039
 39
0.006944
 62
1
  0
LINE
  8
BOPEN_End
 10
5.152805
 20
26.351039
 11
5.152805
 21
26.816663
 39
0.006944
 62
1
  0
LINE
  8
BOPEN_End
 10
6.480931
 20
18.664032
 11
6.480931
 21
36.776529
 39
0.006944
 62
1
  0
LINE
  8
BOPEN_End
 10
6.480931
 20
36.776529
 11
6.480931
 21
18.664032
 39
0.006944
 62
1
  0
LINE
  8
BOPEN_End
 10
6.149680
 20
18.664032
 11
6.149680
 21
34.276530
 39
0.006944
 62
1
  0
LINE
  8
BOPEN_End
 10
-7.647194
 20
26.351039
 11
-7.647194
 21
26.351039
 39
0.006944
 62
1
  0
LINE
  8
BOPEN_End
 10
-7.647194
 20
26.351039
 11
-7.659694
 21
26.351039
 39
0.006944
 62
1
  0
LINE
  8
BOPEN_End
 10
-7.659694
 20
26.351039
 11
-7.659694
 21
26.351039
 39
0.006944
 62
1
  0
LINE
  8
BOPEN_End
 10
-7.659694
 20
26.351039
 11
-7.647194
 21
26.351039
 39
0.006944
 62
1
  0
LINE
  8
BOPEN_End
 10
-7.647194
 20
26.351039
 11
-7.647194
 21
26.351039
 39
0.006944
 62
1
  0
LINE
  8
BOPEN_End
 10
-7.659694
 20
26.351039
 11
-7.659694
 21
26.351039
 39
0.006944
 62
1
  0
LINE
  8
BOPEN_End
 10
-7.647194
 20
26.351039
 11
-7.647194
 21
26.351039
 39
0.006944
 62
1
  0
LINE
  8
BOPEN_End
 10
-7.647194
 20
26.351039
 11
-7.647194
 21
26.351039
 39
0.006944
 62
1
  0
LINE
  8
BOPEN_End
 10
-7.647194
 20
26.351039
 11
-7.034694
 21
26.351039
 39
0.006944
 62
1
  0
LINE
  8
BOPEN_End
 10
-7.034694
 20
26.351039
 11
-7.647194
 21
26.351039
 39
0.006944
 62
1
  0
LINE
  8
BOPEN_End
 10
-7.659694
 20
25.876039
 11
-7.659694
 21
25.876039
 39
0.006944
 62
1
  0
LINE
  8
BOPEN_End
 10
-7.659694
 20
25.876039
 11
-7.647194
 21
25.876039
 39
0.006944
 62
1
  0
LINE
  8
BOPEN_End
 10
-7.647194
 20
25.876039
 11
-7.647194
 21
25.876039
 39
0.006944
 62
1
  0
LINE
  8
BOPEN_End
 10
-7.647194
 20
26.351039
 11
-7.647194
 21
25.876039
 39
0.006944
 62
1
  0
LINE
  8
BOPEN_End
 10
-7.647194
 20
25.876039
 11
-7.659694
 21
25.876039
 39
0.006944
 62
1
  0
LINE
  8
BOPEN_End
 10
-7.659694
 20
25.876039
 11
-7.659694
 21
26.351039
 39
0.006944
 62
1
  0
LINE
  8
BOPEN_End
 10
-7.647194
 20
25.876039
 11
-7.647194
 21
25.876039
 39
0.006944
 62
1
  0
LINE
  8
BOPEN_End
 10
-7.647194
 20
25.876039
 11
-7.647194
 21
26.351039
 39
0.006944
 62
1
  0
LINE
  8
BOPEN_End
 10
-7.659694
 20
26.351039
 11
-7.659694
 21
25.876039
 39
0.006944
 62
1
  0
LINE
  8
BOPEN_End
 10
-7.659694
 20
25.876039
 11
-7.659694
 21
25.876039
 39
0.006944
 62
1
  0
LINE
  8
BOPEN_End
 10
-7.647194
 20
26.351039
 11
-7.647194
 21
25.876039
 39
0.006944
 62
1
  0
LINE
  8
BOPEN_End
 10
-7.647194
 20
25.876039
 11
-7.647194
 21
25.876039
 39
0.006944
 62
1
  0
LINE
  8
BOPEN_End
 10
-7.647194
 20
25.876039
 11
-7.647194
 21
26.351039
 39
0.006944
 62
1
  0
LINE
  8
BOPEN_End
 10
-7.647194
 20
25.876039
 11
-7.647194
 21
25.876039
 39
0.006944
 62
1
  0
LINE
  8
BOPEN_End
 10
-7.034694
 20
25.876039
 11
-7.647194
 21
25.876039
 39
0.006944
 62
1
  0
LINE
  8
BOPEN_End
 10
-7.647194
 20
25.876039
 11
-7.034694
 21
25.876039
 39
0.006944
 62
1
  0
LINE
  8
BOPEN_End
 10
-7.034694
 20
26.351039
 11
-6.565944
 21
26.351039
 39
0.006944
 62
1
  0
LINE
  8
BOPEN_End
 10
-6.565944
 20
26.351039
 11
-7.034694
 21
26.351039
 39
0.006944
 62
1
  0
LINE
  8
BOPEN_End
 10
-6.565944
 20
26.351039
 11
-6.565944
 21
25.876039
 39
0.006944
 62
1
  0
LINE
  8
BOPEN_End
 10
-7.034694
 20
25.876039
 11
-7.034694
 21
26.351039
 39
0.006944
 62
1
  0
LINE
  8
BOPEN_End
 10
-7.034694
 20
26.351039
 11
-7.034694
 21
25.876039
 39
0.006944
 62
1
  0
LINE
  8
BOPEN_End
 10
-6.565944
 20
25.876039
 11
-6.565944
 21
26.351039
 39
0.006944
 62
1
  0
LINE
  8
BOPEN_End
 10
-6.565944
 20
25.876039
 11
-7.034694
 21
25.876039
 39
0.006944
 62
1
  0
LINE
  8
BOPEN_End
 10
-7.034694
 20
25.876039
 11
-6.565944
 21
25.876039
 39
0.006944
 62
1
  0
LINE
  8
BOPEN_End
 10
-6.565944
 20
25.876039
 11
-6.565944
 21
25.410413
 39
0.006944
 62
1
  0
LINE
  8
BOPEN_End
 10
-7.034694
 20
25.876039
 11
-7.034694
 21
25.410413
 39
0.006944
 62
1
  0
LINE
  8
BOPEN_End
 10
-7.034694
 20
25.410413
 11
-7.034694
 21
25.876039
 39
0.006944
 62
1
  0
LINE
  8
BOPEN_End
 10
-7.034694
 20
25.876039
 11
-7.034694
 21
25.410413
 39
0.006944
 62
1
  0
LINE
  8
BOPEN_End
 10
-6.565944
 20
25.410413
 11
-6.565944
 21
25.876039
 39
0.006944
 62
1
  0
LINE
  8
BOPEN_End
 10
-7.034694
 20
25.410413
 11
-7.034694
 21
25.410413
 39
0.006944
 62
1
  0
LINE
  8
BOPEN_End
 10
-6.565944
 20
25.410413
 11
-7.034694
 21
25.410413
 39
0.006944
 62
1
  0
LINE
  8
BOPEN_End
 10
-7.034694
 20
25.410413
 11
-7.034694
 21
25.410413
 39
0.006944
 62
1
  0
LINE
  8
BOPEN_End
 10
-7.034694
 20
25.410413
 11
-6.565944
 21
25.410413
 39
0.006944
 62
1
  0
LINE
  8
BOPEN_End
 10
-6.678696
 20
25.045138
 11
-6.660678
 21
25.088638
 39
0.006944
 62
1
  0
LINE
  8
BOPEN_End
 10
-6.660678
 20
25.088638
 11
-6.678696
 21
25.132135
 39
0.006944
 62
1
  0
LINE
  8
BOPEN_End
 10
-6.678696
 20
25.132135
 11
-6.722193
 21
25.150152
 39
0.006944
 62
1
  0
LINE
  8
BOPEN_End
 10
-6.722193
 20
25.150152
 11
-6.765693
 21
25.132135
 39
0.006944
 62
1
  0
LINE
  8
BOPEN_End
 10
-6.765693
 20
25.132135
 11
-6.783711
 21
25.088638
 39
0.006944
 62
1
  0
LINE
  8
BOPEN_End
 10
-6.783711
 20
25.088638
 11
-6.765693
 21
25.045138
 39
0.006944
 62
1
  0
LINE
  8
BOPEN_End
 10
-6.765693
 20
25.045138
 11
-6.722193
 21
25.027120
 39
0.006944
 62
1
  0
LINE
  8
BOPEN_End
 10
-6.722193
 20
25.027120
 11
-6.678696
 21
25.045138
 39
0.006944
 62
1
  0
LINE
  8
BOPEN_End
 10
-6.678696
 20
24.257737
 11
-6.660678
 21
24.301234
 39
0.006944
 62
1
  0
LINE
  8
BOPEN_End
 10
-6.660678
 20
24.301234
 11
-6.678696
 21
24.344733
 39
0.006944
 62
1
  0
LINE
  8
BOPEN_End
 10
-6.678696
 20
24.344733
 11
-6.722193
 21
24.362751
 39
0.006944
 62
1
  0
LINE
  8
BOPEN_End
 10
-6.722193
 20
24.362751
 11
-6.765693
 21
24.344733
 39
0.006944
 62
1
  0
LINE
  8
BOPEN_End
 10
-6.765693
 20
24.344733
 11
-6.783711
 21
24.301234
 39
0.006944
 62
1
  0
LINE
  8
BOPEN_End
 10
-6.783711
 20
24.301234
 11
-6.765693
 21
24.257737
 39
0.006944
 62
1
  0
LINE
  8
BOPEN_End
 10
-6.765693
 20
24.257737
 11
-6.722193
 21
24.239719
 39
0.006944
 62
1
  0
LINE
  8
BOPEN_End
 10
-6.722193
 20
24.239719
 11
-6.678696
 21
24.257737
 39
0.006944
 62
1
  0
LINE
  8
BOPEN_End
 10
-6.565944
 20
26.351039
 11
4.684056
 21
26.351039
 39
0.006944
 62
1
  0
LINE
  8
BOPEN_End
 10
4.684056
 20
26.351039
 11
-6.565944
 21
26.351039
 39
0.006944
 62
1
  0
LINE
  8
BOPEN_End
 10
4.684056
 20
25.876039
 11
-6.565944
 21
25.876039
 39
0.006944
 62
1
  0
LINE
  8
BOPEN_End
 10
-6.565944
 20
25.876039
 11
4.684056
 21
25.876039
 39
0.006944
 62
1
  0
LINE
  8
BOPEN_End
 10
-6.678696
 20
23.470336
 11
-6.660678
 21
23.513833
 39
0.006944
 62
1
  0
LINE
  8
BOPEN_End
 10
-6.660678
 20
23.513833
 11
-6.678696
 21
23.557332
 39
0.006944
 62
1
  0
LINE
  8
BOPEN_End
 10
-6.678696
 20
23.557332
 11
-6.722193
 21
23.575350
 39
0.006944
 62
1
  0
LINE
  8
BOPEN_End
 10
-6.722193
 20
23.575350
 11
-6.765693
 21
23.557332
 39
0.006944
 62
1
  0
LINE
  8
BOPEN_End
 10
-6.765693
 20
23.557332
 11
-6.783711
 21
23.513833
 39
0.006944
 62
1
  0
LINE
  8
BOPEN_End
 10
-6.783711
 20
23.513833
 11
-6.765693
 21
23.470336
 39
0.006944
 62
1
  0
LINE
  8
BOPEN_End
 10
-6.765693
 20
23.470336
 11
-6.722193
 21
23.452318
 39
0.006944
 62
1
  0
LINE
  8
BOPEN_End
 10
-6.722193
 20
23.452318
 11
-6.678696
 21
23.470336
 39
0.006944
 62
1
  0
LINE
  8
BOPEN_End
 10
-6.678696
 20
22.682935
 11
-6.660678
 21
22.726432
 39
0.006944
 62
1
  0
LINE
  8
BOPEN_End
 10
-6.660678
 20
22.726432
 11
-6.678696
 21
22.769931
 39
0.006944
 62
1
  0
LINE
  8
BOPEN_End
 10
-6.678696
 20
22.769931
 11
-6.722193
 21
22.787949
 39
0.006944
 62
1
  0
LINE
  8
BOPEN_End
 10
-6.722193
 20
22.787949
 11
-6.765693
 21
22.769931
 39
0.006944
 62
1
  0
LINE
  8
BOPEN_End
 10
-6.765693
 20
22.769931
 11
-6.783711
 21
22.726432
 39
0.006944
 62
1
  0
LINE
  8
BOPEN_End
 10
-6.783711
 20
22.726432
 11
-6.765693
 21
22.682935
 39
0.006944
 62
1
  0
LINE
  8
BOPEN_End
 10
-6.765693
 20
22.682935
 11
-6.722193
 21
22.664917
 39
0.006944
 62
1
  0
LINE
  8
BOPEN_End
 10
-6.722193
 20
22.664917
 11
-6.678696
 21
22.682935
 39
0.006944
 62
1
  0
LINE
  8
BOPEN_End
 10
-6.678696
 20
21.895531
 11
-6.660678
 21
21.939030
 39
0.006944
 62
1
  0
LINE
  8
BOPEN_End
 10
-6.660678
 20
21.939030
 11
-6.678696
 21
21.982530
 39
0.006944
 62
1
  0
LINE
  8
BOPEN_End
 10
-6.678696
 20
21.982530
 11
-6.722193
 21
22.000545
 39
0.006944
 62
1
  0
LINE
  8
BOPEN_End
 10
-6.722193
 20
22.000545
 11
-6.765693
 21
21.982530
 39
0.006944
 62
1
  0
LINE
  8
BOPEN_End
 10
-6.765693
 20
21.982530
 11
-6.783711
 21
21.939030
 39
0.006944
 62
1
  0
LINE
  8
BOPEN_End
 10
-6.783711
 20
21.939030
 11
-6.765693
 21
21.895531
 39
0.006944
 62
1
  0
LINE
  8
BOPEN_End
 10
-6.765693
 20
21.895531
 11
-6.722193
 21
21.877515
 39
0.006944
 62
1
  0
LINE
  8
BOPEN_End
 10
-6.722193
 20
21.877515
 11
-6.678696
 21
21.895531
 39
0.006944
 62
1
  0
LINE
  8
BOPEN_End
 10
-7.962684
 20
18.664032
 11
-7.959694
 21
18.664032
 39
0.006944
 62
1
  0
LINE
  8
BOPEN_End
 10
-7.972194
 20
18.664032
 11
-7.962684
 21
18.664032
 39
0.006944
 62
1
  0
LINE
  8
BOPEN_End
 10
-7.972194
 20
18.664032
 11
-7.972194
 21
18.664032
 39
0.006944
 62
1
  0
LINE
  8
BOPEN_End
 10
-7.959694
 20
18.664032
 11
-7.959694
 21
18.664032
 39
0.006944
 62
1
  0
LINE
  8
BOPEN_End
 10
-7.959695
 20
18.664032
 11
-7.972194
 21
18.664032
 39
0.006944
 62
1
  0
LINE
  8
BOPEN_End
 10
-7.959694
 20
18.664032
 11
-7.959695
 21
18.664032
 39
0.006944
 62
1
  0
LINE
  8
BOPEN_End
 10
-7.959694
 20
18.664032
 11
-7.959694
 21
18.664032
 39
0.006944
 62
1
  0
LINE
  8
BOPEN_End
 10
-7.972194
 20
18.664032
 11
-7.972194
 21
18.664032
 39
0.006944
 62
1
  0
LINE
  8
BOPEN_End
 10
-7.959694
 20
18.664032
 11
-7.959694
 21
18.664032
 39
0.006944
 62
1
  0
LINE
  8
BOPEN_End
 10
-7.959694
 20
18.664032
 11
-7.959694
 21
18.664032
 39
0.006944
 62
1
  0
LINE
  8
BOPEN_End
 10
-7.959694
 20
18.664032
 11
-7.959694
 21
18.189029
 39
0.006944
 62
1
  0
LINE
  8
BOPEN_End
 10
-7.972194
 20
18.189029
 11
-7.972194
 21
18.664032
 39
0.006944
 62
1
  0
LINE
  8
BOPEN_End
 10
-7.959694
 20
18.664032
 11
-7.959694
 21
18.189029
 39
0.006944
 62
1
  0
LINE
  8
BOPEN_End
 10
-7.959694
 20
18.189029
 11
-7.959694
 21
18.664032
 39
0.006944
 62
1
  0
LINE
  8
BOPEN_End
 10
-7.972194
 20
18.664032
 11
-7.972194
 21
18.189029
 39
0.006944
 62
1
  0
LINE
  8
BOPEN_End
 10
-7.650701
 20
18.498737
 11
-7.578494
 21
18.528647
 39
0.006944
 62
1
  0
LINE
  8
BOPEN_End
 10
-7.578494
 20
18.324414
 11
-7.650701
 21
18.354325
 39
0.006944
 62
1
  0
LINE
  8
BOPEN_End
 10
-7.650701
 20
18.354325
 11
-7.680610
 21
18.426529
 39
0.006944
 62
1
  0
LINE
  8
BOPEN_End
 10
-7.680610
 20
18.426529
 11
-7.650701
 21
18.498737
 39
0.006944
 62
1
  0
LINE
  8
BOPEN_End
 10
-7.959694
 20
18.664032
 11
-7.959694
 21
18.189029
 39
0.006944
 62
1
  0
LINE
  8
BOPEN_End
 10
-7.959694
 20
18.189029
 11
-7.959694
 21
18.664032
 39
0.006944
 62
1
  0
LINE
  8
BOPEN_End
 10
-7.650701
 20
18.354325
 11
-7.578494
 21
18.324414
 39
0.006944
 62
1
  0
LINE
  8
BOPEN_End
 10
-7.578494
 20
18.528647
 11
-7.650701
 21
18.498737
 39
0.006944
 62
1
  0
LINE
  8
BOPEN_End
 10
-7.650701
 20
18.498737
 11
-7.680610
 21
18.426529
 39
0.006944
 62
1
  0
LINE
  8
BOPEN_End
 10
-7.680610
 20
18.426529
 11
-7.650701
 21
18.354325
 39
0.006944
 62
1
  0
LINE
  8
BOPEN_End
 10
-7.972194
 20
18.664032
 11
-7.972194
 21
18.189029
 39
0.006944
 62
1
  0
LINE
  8
BOPEN_End
 10
-7.959694
 20
18.189029
 11
-7.959694
 21
18.664032
 39
0.006944
 62
1
  0
LINE
  8
BOPEN_End
 10
-7.959694
 20
18.664032
 11
-7.959694
 21
18.189029
 39
0.006944
 62
1
  0
LINE
  8
BOPEN_End
 10
-7.972194
 20
18.664032
 11
-7.972194
 21
18.189029
 39
0.006944
 62
1
  0
LINE
  8
BOPEN_End
 10
-7.972194
 20
18.189029
 11
-7.972194
 21
18.664032
 39
0.006944
 62
1
  0
LINE
  8
BOPEN_End
 10
-7.959694
 20
18.189029
 11
-7.959694
 21
18.664032
 39
0.006944
 62
1
  0
LINE
  8
BOPEN_End
 10
-7.578494
 20
18.528647
 11
-7.506286
 21
18.498737
 39
0.006944
 62
1
  0
LINE
  8
BOPEN_End
 10
-7.506286
 20
18.498737
 11
-7.476377
 21
18.426529
 39
0.006944
 62
1
  0
LINE
  8
BOPEN_End
 10
-7.476377
 20
18.426529
 11
-7.506286
 21
18.354325
 39
0.006944
 62
1
  0
LINE
  8
BOPEN_End
 10
-7.506286
 20
18.354325
 11
-7.578494
 21
18.324414
 39
0.006944
 62
1
  0
LINE
  8
BOPEN_End
 10
-7.578494
 20
18.324414
 11
-7.506286
 21
18.354325
 39
0.006944
 62
1
  0
LINE
  8
BOPEN_End
 10
-7.506286
 20
18.354325
 11
-7.476377
 21
18.426529
 39
0.006944
 62
1
  0
LINE
  8
BOPEN_End
 10
-7.476377
 20
18.426529
 11
-7.506286
 21
18.498737
 39
0.006944
 62
1
  0
LINE
  8
BOPEN_End
 10
-7.506286
 20
18.498737
 11
-7.578494
 21
18.528647
 39
0.006944
 62
1
  0
LINE
  8
BOPEN_End
 10
-7.959694
 20
18.189029
 11
-7.959694
 21
18.189029
 39
0.006944
 62
1
  0
LINE
  8
BOPEN_End
 10
-7.972194
 20
18.189029
 11
-7.972194
 21
18.189029
 39
0.006944
 62
1
  0
LINE
  8
BOPEN_End
 10
-7.972194
 20
18.189029
 11
-7.959694
 21
18.189029
 39
0.006944
 62
1
  0
LINE
  8
BOPEN_End
 10
-7.959695
 20
18.189029
 11
-7.972194
 21
18.189029
 39
0.006944
 62
1
  0
LINE
  8
BOPEN_End
 10
-7.959694
 20
18.189029
 11
-7.959695
 21
18.189029
 39
0.006944
 62
1
  0
LINE
  8
BOPEN_End
 10
-7.959694
 20
18.189029
 11
-7.959694
 21
18.189029
 39
0.006944
 62
1
  0
LINE
  8
BOPEN_End
 10
-7.972194
 20
18.189029
 11
-7.972194
 21
18.189029
 39
0.006944
 62
1
  0
LINE
  8
BOPEN_End
 10
-7.959694
 20
18.189029
 11
-7.959694
 21
18.189029
 39
0.006944
 62
1
  0
LINE
  8
BOPEN_End
 10
-7.959694
 20
18.189029
 11
-7.959694
 21
18.189029
 39
0.006944
 62
1
  0
LINE
  8
BOPEN_End
 10
-7.972194
 20
18.189029
 11
-7.959694
 21
18.189029
 39
0.006944
 62
1
  0
LINE
  8
BOPEN_End
 10
-7.959695
 20
18.189029
 11
-7.972194
 21
18.189029
 39
0.006944
 62
1
  0
LINE
  8
BOPEN_End
 10
-7.959694
 20
18.189029
 11
-7.959695
 21
18.189029
 39
0.006944
 62
1
  0
LINE
  8
BOPEN_End
 10
-7.972194
 20
18.189029
 11
-7.972194
 21
18.189029
 39
0.006944
 62
1
  0
LINE
  8
BOPEN_End
 10
-7.972194
 20
18.189029
 11
-7.972194
 21
18.189029
 39
0.006944
 62
1
  0
LINE
  8
BOPEN_End
 10
-7.959694
 20
18.189029
 11
-6.644069
 21
18.189029
 39
0.006944
 62
1
  0
LINE
  8
BOPEN_End
 10
-6.644069
 20
18.189029
 11
-7.959694
 21
18.189029
 39
0.006944
 62
1
  0
LINE
  8
BOPEN_End
 10
-7.959694
 20
18.189029
 11
-6.644069
 21
18.189029
 39
0.006944
 62
1
  0
LINE
  8
BOPEN_End
 10
-6.644069
 20
18.189029
 11
-7.959694
 21
18.189029
 39
0.006944
 62
1
  0
LINE
  8
BOPEN_End
 10
-6.863299
 20
18.498737
 11
-6.791093
 21
18.528647
 39
0.006944
 62
1
  0
LINE
  8
BOPEN_End
 10
-6.791093
 20
18.528647
 11
-6.718885
 21
18.498737
 39
0.006944
 62
1
  0
LINE
  8
BOPEN_End
 10
-6.718885
 20
18.498737
 11
-6.688975
 21
18.426529
 39
0.006944
 62
1
  0
LINE
  8
BOPEN_End
 10
-6.688975
 20
18.426529
 11
-6.718885
 21
18.354325
 39
0.006944
 62
1
  0
LINE
  8
BOPEN_End
 10
-6.718885
 20
18.354325
 11
-6.791093
 21
18.324414
 39
0.006944
 62
1
  0
LINE
  8
BOPEN_End
 10
-6.791093
 20
18.324414
 11
-6.863299
 21
18.354325
 39
0.006944
 62
1
  0
LINE
  8
BOPEN_End
 10
-6.863299
 20
18.354325
 11
-6.893208
 21
18.426529
 39
0.006944
 62
1
  0
LINE
  8
BOPEN_End
 10
-6.893208
 20
18.426529
 11
-6.863299
 21
18.498737
 39
0.006944
 62
1
  0
LINE
  8
BOPEN_End
 10
-6.863299
 20
18.354325
 11
-6.791093
 21
18.324414
 39
0.006944
 62
1
  0
LINE
  8
BOPEN_End
 10
-6.791093
 20
18.324414
 11
-6.718885
 21
18.354325
 39
0.006944
 62
1
  0
LINE
  8
BOPEN_End
 10
-6.718885
 20
18.354325
 11
-6.688975
 21
18.426529
 39
0.006944
 62
1
  0
LINE
  8
BOPEN_End
 10
-6.688975
 20
18.426529
 11
-6.718885
 21
18.498737
 39
0.006944
 62
1
  0
LINE
  8
BOPEN_End
 10
-6.718885
 20
18.498737
 11
-6.791093
 21
18.528647
 39
0.006944
 62
1
  0
LINE
  8
BOPEN_End
 10
-6.791093
 20
18.528647
 11
-6.863299
 21
18.498737
 39
0.006944
 62
1
  0
LINE
  8
BOPEN_End
 10
-6.863299
 20
18.498737
 11
-6.893208
 21
18.426529
 39
0.006944
 62
1
  0
LINE
  8
BOPEN_End
 10
-6.893208
 20
18.426529
 11
-6.863299
 21
18.354325
 39
0.006944
 62
1
  0
LINE
  8
BOPEN_End
 10
-6.644069
 20
18.189029
 11
-6.644069
 21
18.189029
 39
0.006944
 62
1
  0
LINE
  8
BOPEN_End
 10
-6.644069
 20
18.189029
 11
-6.644069
 21
18.189029
 39
0.006944
 62
1
  0
LINE
  8
BOPEN_End
 10
-6.169068
 20
18.189029
 11
-6.644069
 21
18.189029
 39
0.006944
 62
1
  0
LINE
  8
BOPEN_End
 10
-6.644069
 20
18.189029
 11
-6.169068
 21
18.189029
 39
0.006944
 62
1
  0
LINE
  8
BOPEN_End
 10
-6.169068
 20
18.189029
 11
-6.169068
 21
18.189029
 39
0.006944
 62
1
  0
LINE
  8
BOPEN_End
 10
-6.169068
 20
18.189029
 11
-6.644069
 21
18.189029
 39
0.006944
 62
1
  0
LINE
  8
BOPEN_End
 10
-6.644069
 20
18.189029
 11
-6.169068
 21
18.189029
 39
0.006944
 62
1
  0
LINE
  8
BOPEN_End
 10
-6.169068
 20
18.189029
 11
-6.169068
 21
18.189029
 39
0.006944
 62
1
  0
LINE
  8
BOPEN_End
 10
-6.169068
 20
18.189029
 11
-6.644069
 21
18.189029
 39
0.006944
 62
1
  0
LINE
  8
BOPEN_End
 10
-6.644069
 20
18.189029
 11
-6.169068
 21
18.189029
 39
0.006944
 62
1
  0
LINE
  8
BOPEN_End
 10
-6.478776
 20
17.654226
 11
-6.508685
 21
17.726433
 39
0.006944
 62
1
  0
LINE
  8
BOPEN_End
 10
-6.508685
 20
17.726433
 11
-6.478776
 21
17.798640
 39
0.006944
 62
1
  0
LINE
  8
BOPEN_End
 10
-6.478776
 20
17.798640
 11
-6.406569
 21
17.828548
 39
0.006944
 62
1
  0
LINE
  8
BOPEN_End
 10
-6.406569
 20
17.828548
 11
-6.334361
 21
17.798640
 39
0.006944
 62
1
  0
LINE
  8
BOPEN_End
 10
-6.334361
 20
17.798640
 11
-6.304454
 21
17.726433
 39
0.006944
 62
1
  0
LINE
  8
BOPEN_End
 10
-6.304454
 20
17.726433
 11
-6.334361
 21
17.654226
 39
0.006944
 62
1
  0
LINE
  8
BOPEN_End
 10
-6.334361
 20
17.654226
 11
-6.406569
 21
17.624315
 39
0.006944
 62
1
  0
LINE
  8
BOPEN_End
 10
-6.406569
 20
17.624315
 11
-6.478776
 21
17.654226
 39
0.006944
 62
1
  0
LINE
  8
BOPEN_End
 10
-6.334361
 20
17.654226
 11
-6.304454
 21
17.726433
 39
0.006944
 62
1
  0
LINE
  8
BOPEN_End
 10
-6.304454
 20
17.726433
 11
-6.334361
 21
17.798640
 39
0.006944
 62
1
  0
LINE
  8
BOPEN_End
 10
-6.334361
 20
17.798640
 11
-6.406569
 21
17.828548
 39
0.006944
 62
1
  0
LINE
  8
BOPEN_End
 10
-6.406569
 20
17.828548
 11
-6.478776
 21
17.798640
 39
0.006944
 62
1
  0
LINE
  8
BOPEN_End
 10
-6.478776
 20
17.798640
 11
-6.508685
 21
17.726433
 39
0.006944
 62
1
  0
LINE
  8
BOPEN_End
 10
-6.508685
 20
17.726433
 11
-6.478776
 21
17.654226
 39
0.006944
 62
1
  0
LINE
  8
BOPEN_End
 10
-6.478776
 20
17.654226
 11
-6.406569
 21
17.624315
 39
0.006944
 62
1
  0
LINE
  8
BOPEN_End
 10
-6.406569
 20
17.624315
 11
-6.334361
 21
17.654226
 39
0.006944
 62
1
  0
LINE
  8
BOPEN_End
 10
-6.644069
 20
18.189029
 11
-6.644069
 21
15.689032
 39
0.006944
 62
1
  0
LINE
  8
BOPEN_End
 10
-6.644069
 20
18.189029
 11
-6.644069
 21
15.689032
 39
0.006944
 62
1
  0
LINE
  8
BOPEN_End
 10
-6.644069
 20
15.689032
 11
-6.644069
 21
18.189029
 39
0.006944
 62
1
  0
LINE
  8
BOPEN_End
 10
-6.644069
 20
15.689032
 11
-6.644069
 21
18.189029
 39
0.006944
 62
1
  0
LINE
  8
BOPEN_End
 10
-6.644069
 20
18.189029
 11
-6.644069
 21
15.689032
 39
0.006944
 62
1
  0
LINE
  8
BOPEN_End
 10
-6.644069
 20
18.189029
 11
-6.644069
 21
15.689032
 39
0.006944
 62
1
  0
LINE
  8
BOPEN_End
 10
-6.644069
 20
15.689032
 11
-6.644069
 21
18.189029
 39
0.006944
 62
1
  0
LINE
  8
BOPEN_End
 10
-6.169068
 20
15.689032
 11
-6.169068
 21
18.189029
 39
0.006944
 62
1
  0
LINE
  8
BOPEN_End
 10
-6.169068
 20
18.189029
 11
-6.169068
 21
15.689032
 39
0.006944
 62
1
  0
LINE
  8
BOPEN_End
 10
-6.169068
 20
18.189029
 11
-6.169068
 21
15.689032
 39
0.006944
 62
1
  0
LINE
  8
BOPEN_End
 10
-6.169068
 20
15.689032
 11
-6.169068
 21
18.189029
 39
0.006944
 62
1
  0
LINE
  8
BOPEN_End
 10
-4.501095
 20
18.498737
 11
-4.428887
 21
18.528647
 39
0.006944
 62
1
  0
LINE
  8
BOPEN_End
 10
-4.428887
 20
18.324414
 11
-4.501095
 21
18.354325
 39
0.006944
 62
1
  0
LINE
  8
BOPEN_End
 10
-4.501095
 20
18.354325
 11
-4.531003
 21
18.426529
 39
0.006944
 62
1
  0
LINE
  8
BOPEN_End
 10
-4.531003
 20
18.426529
 11
-4.501095
 21
18.498737
 39
0.006944
 62
1
  0
LINE
  8
BOPEN_End
 10
-4.501095
 20
18.354325
 11
-4.428887
 21
18.324414
 39
0.006944
 62
1
  0
LINE
  8
BOPEN_End
 10
-4.428887
 20
18.528647
 11
-4.501095
 21
18.498737
 39
0.006944
 62
1
  0
LINE
  8
BOPEN_End
 10
-4.501095
 20
18.498737
 11
-4.531003
 21
18.426529
 39
0.006944
 62
1
  0
LINE
  8
BOPEN_End
 10
-4.531003
 20
18.426529
 11
-4.501095
 21
18.354325
 39
0.006944
 62
1
  0
LINE
  8
BOPEN_End
 10
-4.428887
 20
18.528647
 11
-4.356679
 21
18.498737
 39
0.006944
 62
1
  0
LINE
  8
BOPEN_End
 10
-4.356679
 20
18.498737
 11
-4.326770
 21
18.426529
 39
0.006944
 62
1
  0
LINE
  8
BOPEN_End
 10
-4.326770
 20
18.426529
 11
-4.356679
 21
18.354325
 39
0.006944
 62
1
  0
LINE
  8
BOPEN_End
 10
-4.356679
 20
18.354325
 11
-4.428887
 21
18.324414
 39
0.006944
 62
1
  0
LINE
  8
BOPEN_End
 10
-4.428887
 20
18.324414
 11
-4.356679
 21
18.354325
 39
0.006944
 62
1
  0
LINE
  8
BOPEN_End
 10
-4.356679
 20
18.354325
 11
-4.326770
 21
18.426529
 39
0.006944
 62
1
  0
LINE
  8
BOPEN_End
 10
-4.326770
 20
18.426529
 11
-4.356679
 21
18.498737
 39
0.006944
 62
1
  0
LINE
  8
BOPEN_End
 10
-4.356679
 20
18.498737
 11
-4.428887
 21
18.528647
 39
0.006944
 62
1
  0
LINE
  8
BOPEN_End
 10
-2.138889
 20
18.498737
 11
-2.066683
 21
18.528647
 39
0.006944
 62
1
  0
LINE
  8
BOPEN_End
 10
-2.066683
 20
18.528647
 11
-1.994476
 21
18.498737
 39
0.006944
 62
1
  0
LINE
  8
BOPEN_End
 10
-1.994476
 20
18.498737
 11
-1.964566
 21
18.426529
 39
0.006944
 62
1
  0
LINE
  8
BOPEN_End
 10
-1.964566
 20
18.426529
 11
-1.994476
 21
18.354325
 39
0.006944
 62
1
  0
LINE
  8
BOPEN_End
 10
-1.994476
 20
18.354325
 11
-2.066683
 21
18.324414
 39
0.006944
 62
1
  0
LINE
  8
BOPEN_End
 10
-2.066683
 20
18.324414
 11
-2.138889
 21
18.354325
 39
0.006944
 62
1
  0
LINE
  8
BOPEN_End
 10
-2.138889
 20
18.354325
 11
-2.168799
 21
18.426529
 39
0.006944
 62
1
  0
LINE
  8
BOPEN_End
 10
-2.168799
 20
18.426529
 11
-2.138889
 21
18.498737
 39
0.006944
 62
1
  0
LINE
  8
BOPEN_End
 10
-2.138889
 20
18.354325
 11
-2.066683
 21
18.324414
 39
0.006944
 62
1
  0
LINE
  8
BOPEN_End
 10
-2.066683
 20
18.324414
 11
-1.994476
 21
18.354325
 39
0.006944
 62
1
  0
LINE
  8
BOPEN_End
 10
-1.994476
 20
18.354325
 11
-1.964566
 21
18.426529
 39
0.006944
 62
1
  0
LINE
  8
BOPEN_End
 10
-1.964566
 20
18.426529
 11
-1.994476
 21
18.498737
 39
0.006944
 62
1
  0
LINE
  8
BOPEN_End
 10
-1.994476
 20
18.498737
 11
-2.066683
 21
18.528647
 39
0.006944
 62
1
  0
LINE
  8
BOPEN_End
 10
-2.066683
 20
18.528647
 11
-2.138889
 21
18.498737
 39
0.006944
 62
1
  0
LINE
  8
BOPEN_End
 10
-2.138889
 20
18.498737
 11
-2.168799
 21
18.426529
 39
0.006944
 62
1
  0
LINE
  8
BOPEN_End
 10
-2.168799
 20
18.426529
 11
-2.138889
 21
18.354325
 39
0.006944
 62
1
  0
LINE
  8
BOPEN_End
 10
-7.959694
 20
18.664032
 11
5.818430
 21
18.664032
 39
0.006944
 62
1
  0
LINE
  8
BOPEN_End
 10
5.818430
 20
18.664032
 11
-7.959694
 21
18.664032
 39
0.006944
 62
1
  0
LINE
  8
BOPEN_End
 10
-6.478776
 20
16.079421
 11
-6.508685
 21
16.151631
 39
0.006944
 62
1
  0
LINE
  8
BOPEN_End
 10
-6.508685
 20
16.151631
 11
-6.478776
 21
16.223836
 39
0.006944
 62
1
  0
LINE
  8
BOPEN_End
 10
-6.478776
 20
16.223836
 11
-6.406569
 21
16.253745
 39
0.006944
 62
1
  0
LINE
  8
BOPEN_End
 10
-6.406569
 20
16.253745
 11
-6.334361
 21
16.223836
 39
0.006944
 62
1
  0
LINE
  8
BOPEN_End
 10
-6.334361
 20
16.223836
 11
-6.304454
 21
16.151631
 39
0.006944
 62
1
  0
LINE
  8
BOPEN_End
 10
-6.304454
 20
16.151631
 11
-6.334361
 21
16.079421
 39
0.006944
 62
1
  0
LINE
  8
BOPEN_End
 10
-6.334361
 20
16.079421
 11
-6.406569
 21
16.049512
 39
0.006944
 62
1
  0
LINE
  8
BOPEN_End
 10
-6.406569
 20
16.049512
 11
-6.478776
 21
16.079421
 39
0.006944
 62
1
  0
LINE
  8
BOPEN_End
 10
-6.334361
 20
16.079421
 11
-6.304454
 21
16.151631
 39
0.006944
 62
1
  0
LINE
  8
BOPEN_End
 10
-6.304454
 20
16.151631
 11
-6.334361
 21
16.223836
 39
0.006944
 62
1
  0
LINE
  8
BOPEN_End
 10
-6.334361
 20
16.223836
 11
-6.406569
 21
16.253745
 39
0.006944
 62
1
  0
LINE
  8
BOPEN_End
 10
-6.406569
 20
16.253745
 11
-6.478776
 21
16.223836
 39
0.006944
 62
1
  0
LINE
  8
BOPEN_End
 10
-6.478776
 20
16.223836
 11
-6.508685
 21
16.151631
 39
0.006944
 62
1
  0
LINE
  8
BOPEN_End
 10
-6.508685
 20
16.151631
 11
-6.478776
 21
16.079421
 39
0.006944
 62
1
  0
LINE
  8
BOPEN_End
 10
-6.478776
 20
16.079421
 11
-6.406569
 21
16.049512
 39
0.006944
 62
1
  0
LINE
  8
BOPEN_End
 10
-6.406569
 20
16.049512
 11
-6.334361
 21
16.079421
 39
0.006944
 62
1
  0
LINE
  8
BOPEN_End
 10
-6.644069
 20
15.689032
 11
-6.644069
 21
15.689032
 39
0.006944
 62
1
  0
LINE
  8
BOPEN_End
 10
-6.644069
 20
15.689032
 11
-6.644069
 21
15.689032
 39
0.006944
 62
1
  0
LINE
  8
BOPEN_End
 10
-6.644069
 20
15.689032
 11
-6.644069
 21
15.689032
 39
0.006944
 62
1
  0
LINE
  8
BOPEN_End
 10
-6.644069
 20
15.689032
 11
-6.644069
 21
15.689032
 39
0.006944
 62
1
  0
LINE
  8
BOPEN_End
 10
-6.644069
 20
15.689032
 11
-6.169068
 21
15.689032
 39
0.006944
 62
1
  0
LINE
  8
BOPEN_End
 10
-6.644069
 20
15.689032
 11
-6.169068
 21
15.689032
 39
0.006944
 62
1
  0
LINE
  8
BOPEN_End
 10
-6.169068
 20
15.689032
 11
-6.644069
 21
15.689032
 39
0.006944
 62
1
  0
LINE
  8
BOPEN_End
 10
-6.644069
 20
15.689032
 11
-6.169068
 21
15.689032
 39
0.006944
 62
1
  0
LINE
  8
BOPEN_End
 10
-6.169068
 20
15.689032
 11
-6.169068
 21
15.689032
 39
0.006944
 62
1
  0
LINE
  8
BOPEN_End
 10
-6.169068
 20
15.689032
 11
-6.644069
 21
15.689032
 39
0.006944
 62
1
  0
LINE
  8
BOPEN_End
 10
-6.169068
 20
15.689032
 11
-6.169068
 21
15.689032
 39
0.006944
 62
1
  0
LINE
  8
BOPEN_End
 10
-6.169068
 20
15.689032
 11
-6.644069
 21
15.689032
 39
0.006944
 62
1
  0
LINE
  8
BOPEN_End
 10
4.684056
 20
26.351039
 11
5.152805
 21
26.351039
 39
0.006944
 62
1
  0
LINE
  8
BOPEN_End
 10
5.152805
 20
26.351039
 11
4.684056
 21
26.351039
 39
0.006944
 62
1
  0
LINE
  8
BOPEN_End
 10
5.152805
 20
26.351039
 11
5.818430
 21
26.351039
 39
0.006944
 62
1
  0
LINE
  8
BOPEN_End
 10
5.818430
 20
26.351039
 11
5.152805
 21
26.351039
 39
0.006944
 62
1
  0
LINE
  8
BOPEN_End
 10
4.684056
 20
25.876039
 11
4.684056
 21
26.351039
 39
0.006944
 62
1
  0
LINE
  8
BOPEN_End
 10
4.684056
 20
26.351039
 11
4.684056
 21
25.876039
 39
0.006944
 62
1
  0
LINE
  8
BOPEN_End
 10
5.152805
 20
25.876039
 11
4.684056
 21
25.876039
 39
0.006944
 62
1
  0
LINE
  8
BOPEN_End
 10
4.684056
 20
25.876039
 11
5.152805
 21
25.876039
 39
0.006944
 62
1
  0
LINE
  8
BOPEN_End
 10
5.152805
 20
26.351039
 11
5.152805
 21
25.876039
 39
0.006944
 62
1
  0
LINE
  8
BOPEN_End
 10
5.152805
 20
25.876039
 11
5.152805
 21
26.351039
 39
0.006944
 62
1
  0
LINE
  8
BOPEN_End
 10
5.818430
 20
25.876039
 11
5.152805
 21
25.876039
 39
0.006944
 62
1
  0
LINE
  8
BOPEN_End
 10
5.152805
 20
25.876039
 11
5.818430
 21
25.876039
 39
0.006944
 62
1
  0
LINE
  8
BOPEN_End
 10
4.684056
 20
25.876039
 11
4.684056
 21
25.410413
 39
0.006944
 62
1
  0
LINE
  8
BOPEN_End
 10
4.684056
 20
25.410413
 11
4.684056
 21
25.876039
 39
0.006944
 62
1
  0
LINE
  8
BOPEN_End
 10
4.684056
 20
25.876039
 11
4.684056
 21
25.410413
 39
0.006944
 62
1
  0
LINE
  8
BOPEN_End
 10
5.152805
 20
25.876039
 11
5.152805
 21
25.410413
 39
0.006944
 62
1
  0
LINE
  8
BOPEN_End
 10
5.152805
 20
25.410413
 11
5.152805
 21
25.876039
 39
0.006944
 62
1
  0
LINE
  8
BOPEN_End
 10
4.684056
 20
25.410413
 11
4.684056
 21
25.410413
 39
0.006944
 62
1
  0
LINE
  8
BOPEN_End
 10
5.152805
 20
25.410413
 11
4.684056
 21
25.410413
 39
0.006944
 62
1
  0
LINE
  8
BOPEN_End
 10
4.684056
 20
25.410413
 11
4.684056
 21
25.410413
 39
0.006944
 62
1
  0
LINE
  8
BOPEN_End
 10
4.684056
 20
25.410413
 11
5.152805
 21
25.410413
 39
0.006944
 62
1
  0
LINE
  8
BOPEN_End
 10
5.855929
 20
26.351039
 11
5.855929
 21
26.351039
 39
0.006944
 62
1
  0
LINE
  8
BOPEN_End
 10
5.818430
 20
26.351039
 11
5.855929
 21
26.351039
 39
0.006944
 62
1
  0
LINE
  8
BOPEN_End
 10
5.855929
 20
26.351039
 11
5.855929
 21
26.351039
 39
0.006944
 62
1
  0
LINE
  8
BOPEN_End
 10
5.855929
 20
26.351039
 11
5.818430
 21
26.351039
 39
0.006944
 62
1
  0
LINE
  8
BOPEN_End
 10
5.855929
 20
25.876039
 11
5.855929
 21
25.876039
 39
0.006944
 62
1
  0
LINE
  8
BOPEN_End
 10
5.855929
 20
25.876039
 11
5.855929
 21
26.351039
 39
0.006944
 62
1
  0
LINE
  8
BOPEN_End
 10
5.855929
 20
26.351039
 11
5.855929
 21
25.876039
 39
0.006944
 62
1
  0
LINE
  8
BOPEN_End
 10
5.855929
 20
25.876039
 11
5.818430
 21
25.876039
 39
0.006944
 62
1
  0
LINE
  8
BOPEN_End
 10
5.818430
 20
25.876039
 11
5.855929
 21
25.876039
 39
0.006944
 62
1
  0
LINE
  8
BOPEN_End
 10
5.855929
 20
25.876039
 11
5.855929
 21
25.876039
 39
0.006944
 62
1
  0
LINE
  8
BOPEN_End
 10
4.961927
 20
25.045138
 11
4.979948
 21
25.088638
 39
0.006944
 62
1
  0
LINE
  8
BOPEN_End
 10
4.979948
 20
25.088638
 11
4.961927
 21
25.132135
 39
0.006944
 62
1
  0
LINE
  8
BOPEN_End
 10
4.961927
 20
25.132135
 11
4.918428
 21
25.150152
 39
0.006944
 62
1
  0
LINE
  8
BOPEN_End
 10
4.918428
 20
25.150152
 11
4.874933
 21
25.132135
 39
0.006944
 62
1
  0
LINE
  8
BOPEN_End
 10
4.874933
 20
25.132135
 11
4.856913
 21
25.088638
 39
0.006944
 62
1
  0
LINE
  8
BOPEN_End
 10
4.856913
 20
25.088638
 11
4.874933
 21
25.045138
 39
0.006944
 62
1
  0
LINE
  8
BOPEN_End
 10
4.874933
 20
25.045138
 11
4.918428
 21
25.027120
 39
0.006944
 62
1
  0
LINE
  8
BOPEN_End
 10
4.918428
 20
25.027120
 11
4.961927
 21
25.045138
 39
0.006944
 62
1
  0
LINE
  8
BOPEN_End
 10
4.961927
 20
24.257737
 11
4.979948
 21
24.301234
 39
0.006944
 62
1
  0
LINE
  8
BOPEN_End
 10
4.979948
 20
24.301234
 11
4.961927
 21
24.344733
 39
0.006944
 62
1
  0
LINE
  8
BOPEN_End
 10
4.961927
 20
24.344733
 11
4.918428
 21
24.362751
 39
0.006944
 62
1
  0
LINE
  8
BOPEN_End
 10
4.918428
 20
24.362751
 11
4.874933
 21
24.344733
 39
0.006944
 62
1
  0
LINE
  8
BOPEN_End
 10
4.874933
 20
24.344733
 11
4.856913
 21
24.301234
 39
0.006944
 62
1
  0
LINE
  8
BOPEN_End
 10
4.856913
 20
24.301234
 11
4.874933
 21
24.257737
 39
0.006944
 62
1
  0
LINE
  8
BOPEN_End
 10
4.874933
 20
24.257737
 11
4.918428
 21
24.239719
 39
0.006944
 62
1
  0
LINE
  8
BOPEN_End
 10
4.918428
 20
24.239719
 11
4.961927
 21
24.257737
 39
0.006944
 62
1
  0
LINE
  8
BOPEN_End
 10
4.961927
 20
23.470336
 11
4.979948
 21
23.513833
 39
0.006944
 62
1
  0
LINE
  8
BOPEN_End
 10
4.979948
 20
23.513833
 11
4.961927
 21
23.557332
 39
0.006944
 62
1
  0
LINE
  8
BOPEN_End
 10
4.961927
 20
23.557332
 11
4.918428
 21
23.575350
 39
0.006944
 62
1
  0
LINE
  8
BOPEN_End
 10
4.918428
 20
23.575350
 11
4.874933
 21
23.557332
 39
0.006944
 62
1
  0
LINE
  8
BOPEN_End
 10
4.874933
 20
23.557332
 11
4.856913
 21
23.513833
 39
0.006944
 62
1
  0
LINE
  8
BOPEN_End
 10
4.856913
 20
23.513833
 11
4.874933
 21
23.470336
 39
0.006944
 62
1
  0
LINE
  8
BOPEN_End
 10
4.874933
 20
23.470336
 11
4.918428
 21
23.452318
 39
0.006944
 62
1
  0
LINE
  8
BOPEN_End
 10
4.918428
 20
23.452318
 11
4.961927
 21
23.470336
 39
0.006944
 62
1
  0
LINE
  8
BOPEN_End
 10
4.961927
 20
22.682935
 11
4.979948
 21
22.726432
 39
0.006944
 62
1
  0
LINE
  8
BOPEN_End
 10
4.979948
 20
22.726432
 11
4.961927
 21
22.769931
 39
0.006944
 62
1
  0
LINE
  8
BOPEN_End
 10
4.961927
 20
22.769931
 11
4.918428
 21
22.787949
 39
0.006944
 62
1
  0
LINE
  8
BOPEN_End
 10
4.918428
 20
22.787949
 11
4.874933
 21
22.769931
 39
0.006944
 62
1
  0
LINE
  8
BOPEN_End
 10
4.874933
 20
22.769931
 11
4.856913
 21
22.726432
 39
0.006944
 62
1
  0
LINE
  8
BOPEN_End
 10
4.856913
 20
22.726432
 11
4.874933
 21
22.682935
 39
0.006944
 62
1
  0
LINE
  8
BOPEN_End
 10
4.874933
 20
22.682935
 11
4.918428
 21
22.664917
 39
0.006944
 62
1
  0
LINE
  8
BOPEN_End
 10
4.918428
 20
22.664917
 11
4.961927
 21
22.682935
 39
0.006944
 62
1
  0
LINE
  8
BOPEN_End
 10
4.961927
 20
21.895531
 11
4.979948
 21
21.939030
 39
0.006944
 62
1
  0
LINE
  8
BOPEN_End
 10
4.979948
 20
21.939030
 11
4.961927
 21
21.982530
 39
0.006944
 62
1
  0
LINE
  8
BOPEN_End
 10
4.961927
 20
21.982530
 11
4.918428
 21
22.000545
 39
0.006944
 62
1
  0
LINE
  8
BOPEN_End
 10
4.918428
 20
22.000545
 11
4.874933
 21
21.982530
 39
0.006944
 62
1
  0
LINE
  8
BOPEN_End
 10
4.874933
 20
21.982530
 11
4.856913
 21
21.939030
 39
0.006944
 62
1
  0
LINE
  8
BOPEN_End
 10
4.856913
 20
21.939030
 11
4.874933
 21
21.895531
 39
0.006944
 62
1
  0
LINE
  8
BOPEN_End
 10
4.874933
 20
21.895531
 11
4.918428
 21
21.877515
 39
0.006944
 62
1
  0
LINE
  8
BOPEN_End
 10
4.918428
 20
21.877515
 11
4.961927
 21
21.895531
 39
0.006944
 62
1
  0
LINE
  8
BOPEN_End
 10
5.818430
 20
25.876039
 11
5.818430
 21
18.664034
 39
0.006944
 62
1
  0
LINE
  8
BOPEN_End
 10
0.223316
 20
18.498737
 11
0.295523
 21
18.528647
 39
0.006944
 62
1
  0
LINE
  8
BOPEN_End
 10
0.295523
 20
18.324414
 11
0.223316
 21
18.354325
 39
0.006944
 62
1
  0
LINE
  8
BOPEN_End
 10
0.223316
 20
18.354325
 11
0.193404
 21
18.426529
 39
0.006944
 62
1
  0
LINE
  8
BOPEN_End
 10
0.193404
 20
18.426529
 11
0.223316
 21
18.498737
 39
0.006944
 62
1
  0
LINE
  8
BOPEN_End
 10
0.223316
 20
18.354325
 11
0.295523
 21
18.324414
 39
0.006944
 62
1
  0
LINE
  8
BOPEN_End
 10
0.295523
 20
18.528647
 11
0.223316
 21
18.498737
 39
0.006944
 62
1
  0
LINE
  8
BOPEN_End
 10
0.223316
 20
18.498737
 11
0.193404
 21
18.426529
 39
0.006944
 62
1
  0
LINE
  8
BOPEN_End
 10
0.193404
 20
18.426529
 11
0.223316
 21
18.354325
 39
0.006944
 62
1
  0
LINE
  8
BOPEN_End
 10
0.295523
 20
18.528647
 11
0.367730
 21
18.498737
 39
0.006944
 62
1
  0
LINE
  8
BOPEN_End
 10
0.367730
 20
18.498737
 11
0.397637
 21
18.426529
 39
0.006944
 62
1
  0
LINE
  8
BOPEN_End
 10
0.397637
 20
18.426529
 11
0.367730
 21
18.354325
 39
0.006944
 62
1
  0
LINE
  8
BOPEN_End
 10
0.367730
 20
18.354325
 11
0.295523
 21
18.324414
 39
0.006944
 62
1
  0
LINE
  8
BOPEN_End
 10
0.295523
 20
18.324414
 11
0.367730
 21
18.354325
 39
0.006944
 62
1
  0
LINE
  8
BOPEN_End
 10
0.367730
 20
18.354325
 11
0.397637
 21
18.426529
 39
0.006944
 62
1
  0
LINE
  8
BOPEN_End
 10
0.397637
 20
18.426529
 11
0.367730
 21
18.498737
 39
0.006944
 62
1
  0
LINE
  8
BOPEN_End
 10
0.367730
 20
18.498737
 11
0.295523
 21
18.528647
 39
0.006944
 62
1
  0
LINE
  8
BOPEN_End
 10
6.480931
 20
18.189029
 11
-6.169068
 21
18.189029
 39
0.006944
 62
1
  0
LINE
  8
BOPEN_End
 10
-6.169068
 20
18.189029
 11
6.480931
 21
18.189029
 39
0.006944
 62
1
  0
LINE
  8
BOPEN_End
 10
2.585518
 20
18.498737
 11
2.657725
 21
18.528647
 39
0.006944
 62
1
  0
LINE
  8
BOPEN_End
 10
2.657725
 20
18.528647
 11
2.729936
 21
18.498737
 39
0.006944
 62
1
  0
LINE
  8
BOPEN_End
 10
2.729936
 20
18.498737
 11
2.759843
 21
18.426529
 39
0.006944
 62
1
  0
LINE
  8
BOPEN_End
 10
2.759843
 20
18.426529
 11
2.729936
 21
18.354325
 39
0.006944
 62
1
  0
LINE
  8
BOPEN_End
 10
2.729936
 20
18.354325
 11
2.657725
 21
18.324414
 39
0.006944
 62
1
  0
LINE
  8
BOPEN_End
 10
2.657725
 20
18.324414
 11
2.585518
 21
18.354325
 39
0.006944
 62
1
  0
LINE
  8
BOPEN_End
 10
2.585518
 20
18.354325
 11
2.555610
 21
18.426529
 39
0.006944
 62
1
  0
LINE
  8
BOPEN_End
 10
2.555610
 20
18.426529
 11
2.585518
 21
18.498737
 39
0.006944
 62
1
  0
LINE
  8
BOPEN_End
 10
2.585518
 20
18.354325
 11
2.657725
 21
18.324414
 39
0.006944
 62
1
  0
LINE
  8
BOPEN_End
 10
2.657725
 20
18.324414
 11
2.729936
 21
18.354325
 39
0.006944
 62
1
  0
LINE
  8
BOPEN_End
 10
2.729936
 20
18.354325
 11
2.759843
 21
18.426529
 39
0.006944
 62
1
  0
LINE
  8
BOPEN_End
 10
2.759843
 20
18.426529
 11
2.729936
 21
18.498737
 39
0.006944
 62
1
  0
LINE
  8
BOPEN_End
 10
2.729936
 20
18.498737
 11
2.657725
 21
18.528647
 39
0.006944
 62
1
  0
LINE
  8
BOPEN_End
 10
2.657725
 20
18.528647
 11
2.585518
 21
18.498737
 39
0.006944
 62
1
  0
LINE
  8
BOPEN_End
 10
2.585518
 20
18.498737
 11
2.555610
 21
18.426529
 39
0.006944
 62
1
  0
LINE
  8
BOPEN_End
 10
2.555610
 20
18.426529
 11
2.585518
 21
18.354325
 39
0.006944
 62
1
  0
LINE
  8
BOPEN_End
 10
4.947723
 20
18.498737
 11
5.019930
 21
18.528647
 39
0.006944
 62
1
  0
LINE
  8
BOPEN_End
 10
5.019930
 20
18.324414
 11
4.947723
 21
18.354325
 39
0.006944
 62
1
  0
LINE
  8
BOPEN_End
 10
4.947723
 20
18.354325
 11
4.917816
 21
18.426529
 39
0.006944
 62
1
  0
LINE
  8
BOPEN_End
 10
4.917816
 20
18.426529
 11
4.947723
 21
18.498737
 39
0.006944
 62
1
  0
LINE
  8
BOPEN_End
 10
4.947723
 20
18.354325
 11
5.019930
 21
18.324414
 39
0.006944
 62
1
  0
LINE
  8
BOPEN_End
 10
5.019930
 20
18.528647
 11
4.947723
 21
18.498737
 39
0.006944
 62
1
  0
LINE
  8
BOPEN_End
 10
4.947723
 20
18.498737
 11
4.917816
 21
18.426529
 39
0.006944
 62
1
  0
LINE
  8
BOPEN_End
 10
4.917816
 20
18.426529
 11
4.947723
 21
18.354325
 39
0.006944
 62
1
  0
LINE
  8
BOPEN_End
 10
5.019930
 20
18.528647
 11
5.092137
 21
18.498737
 39
0.006944
 62
1
  0
LINE
  8
BOPEN_End
 10
5.092137
 20
18.498737
 11
5.122049
 21
18.426529
 39
0.006944
 62
1
  0
LINE
  8
BOPEN_End
 10
5.122049
 20
18.426529
 11
5.092137
 21
18.354325
 39
0.006944
 62
1
  0
LINE
  8
BOPEN_End
 10
5.092137
 20
18.354325
 11
5.019930
 21
18.324414
 39
0.006944
 62
1
  0
LINE
  8
BOPEN_End
 10
5.019930
 20
18.324414
 11
5.092137
 21
18.354325
 39
0.006944
 62
1
  0
LINE
  8
BOPEN_End
 10
5.092137
 20
18.354325
 11
5.122049
 21
18.426529
 39
0.006944
 62
1
  0
LINE
  8
BOPEN_End
 10
5.122049
 20
18.426529
 11
5.092137
 21
18.498737
 39
0.006944
 62
1
  0
LINE
  8
BOPEN_End
 10
5.092137
 20
18.498737
 11
5.019930
 21
18.528647
 39
0.006944
 62
1
  0
LINE
  8
BOPEN_End
 10
5.818430
 20
18.664032
 11
5.818430
 21
18.664032
 39
0.006944
 62
1
  0
LINE
  8
BOPEN_End
 10
5.818430
 20
18.664032
 11
6.130929
 21
18.664032
 39
0.006944
 62
1
  0
LINE
  8
BOPEN_End
 10
6.130929
 20
18.664032
 11
5.818430
 21
18.664032
 39
0.006944
 62
1
  0
LINE
  8
BOPEN_End
 10
6.149680
 20
18.664032
 11
6.149680
 21
18.664032
 39
0.006944
 62
1
  0
LINE
  8
BOPEN_End
 10
6.480931
 20
18.664032
 11
6.480931
 21
18.664032
 39
0.006944
 62
1
  0
LINE
  8
BOPEN_End
 10
6.149680
 20
18.664032
 11
6.480931
 21
18.664032
 39
0.006944
 62
1
  0
LINE
  8
BOPEN_End
 10
6.130929
 20
18.664032
 11
6.149680
 21
18.664032
 39
0.006944
 62
1
  0
LINE
  8
BOPEN_End
 10
6.480931
 20
18.664032
 11
6.480931
 21
18.664032
 39
0.006944
 62
1
  0
LINE
  8
BOPEN_End
 10
6.149680
 20
18.664032
 11
6.130929
 21
18.664032
 39
0.006944
 62
1
  0
LINE
  8
BOPEN_End
 10
6.480931
 20
18.664032
 11
6.149680
 21
18.664032
 39
0.006944
 62
1
  0
LINE
  8
BOPEN_End
 10
5.818430
 20
18.423406
 11
5.818430
 21
18.423406
 39
0.006944
 62
1
  0
LINE
  8
BOPEN_End
 10
5.818430
 20
18.429655
 11
5.818430
 21
18.429655
 39
0.006944
 62
1
  0
LINE
  8
BOPEN_End
 10
5.818430
 20
18.429655
 11
5.818430
 21
18.429655
 39
0.006944
 62
1
  0
LINE
  8
BOPEN_End
 10
5.818430
 20
18.423406
 11
5.818430
 21
18.410904
 39
0.006944
 62
1
  0
LINE
  8
BOPEN_End
 10
5.818430
 20
18.429655
 11
5.818430
 21
18.423406
 39
0.006944
 62
1
  0
LINE
  8
BOPEN_End
 10
5.818430
 20
18.664034
 11
5.818430
 21
18.429655
 39
0.006944
 62
1
  0
LINE
  8
BOPEN_End
 10
5.818430
 20
18.410904
 11
6.149680
 21
18.410904
 39
0.006944
 62
1
  0
LINE
  8
BOPEN_End
 10
6.480931
 20
18.189029
 11
6.480931
 21
18.664032
 39
0.006944
 62
1
  0
LINE
  8
BOPEN_End
 10
6.480931
 20
18.189029
 11
6.480931
 21
18.664032
 39
0.006944
 62
1
  0
LINE
  8
BOPEN_End
 10
6.480931
 20
18.664032
 11
6.480931
 21
18.189029
 39
0.006944
 62
1
  0
LINE
  8
BOPEN_End
 10
6.149680
 20
18.423406
 11
6.149680
 21
18.423406
 39
0.006944
 62
1
  0
LINE
  8
BOPEN_End
 10
6.130929
 20
18.429655
 11
6.130929
 21
18.429655
 39
0.006944
 62
1
  0
LINE
  8
BOPEN_End
 10
6.130929
 20
18.429655
 11
6.130929
 21
18.429655
 39
0.006944
 62
1
  0
LINE
  8
BOPEN_End
 10
6.149680
 20
18.423409
 11
6.149680
 21
18.664032
 39
0.006944
 62
1
  0
LINE
  8
BOPEN_End
 10
6.149680
 20
18.410904
 11
6.149680
 21
18.423409
 39
0.006944
 62
1
  0
LINE
  8
BOPEN_End
 10
6.480931
 20
18.664032
 11
6.480931
 21
18.189029
 39
0.006944
 62
1
  0
LINE
  8
BOPEN_End
 10
6.480931
 20
18.189029
 11
6.480931
 21
18.189029
 39
0.006944
 62
1
  0
LINE
  8
BOPEN_End
 10
6.480931
 20
18.189029
 11
6.480931
 21
18.189029
 39
0.006944
 62
1
  0
LINE
  8
BOPEN_End
 10
6.480931
 20
15.689032
 11
6.480931
 21
18.189029
 39
0.006944
 62
1
  0
LINE
  8
BOPEN_End
 10
6.480931
 20
18.189029
 11
6.480931
 21
15.689032
 39
0.006944
 62
1
  0
LINE
  8
BOPEN_End
 10
-6.169068
 20
15.689032
 11
6.480931
 21
15.689032
 39
0.006944
 62
1
  0
LINE
  8
BOPEN_End
 10
6.480931
 20
15.689032
 11
-6.169068
 21
15.689032
 39
0.006944
 62
1
  0
LINE
  8
BOPEN_End
 10
-11.722194
 20
15.689031
 11
-10.472194
 21
15.689031
 39
0.006944
 62
1
  0
LINE
  8
BOPEN_End
 10
-11.722194
 20
37.251530
 11
-10.472194
 21
37.251530
 39
0.006944
 62
1
  0
LINE
  8
BOPEN_End
 10
-11.097194
 20
15.689031
 11
-11.097194
 21
37.251530
 39
0.006944
 62
1
  0
LINE
  8
BOPEN_End
 10
-7.972194
 20
11.939031
 11
-7.972194
 21
13.189031
 39
0.006944
 62
1
  0
LINE
  8
BOPEN_End
 10
6.480930
 20
11.939031
 11
6.480930
 21
13.189031
 39
0.006944
 62
1
  0
LINE
  8
BOPEN_End
 10
-7.972194
 20
12.564031
 11
6.480930
 21
12.564031
 39
0.006944
 62
1
  0
TEXT
  8
BOPEN_End
 10
-2.982965
 20
13.045029
 11
-2.982965
 21
13.045029
 40
0.937500
 41
0.45
 50
0.000000
 72
0
 73
0
 62
1
  1
DEPTH
  0
TEXT
  8
BOPEN_End
 10
-10.233121
 20
25.400928
 11
-10.233121
 21
25.400928
 40
0.937500
 41
0.45
 50
90.000000
 72
0
 73
0
 62
1
  1
HEIGHT
  0
TEXT
  8
BOPEN_End
 10
-6.012373
 20
37.995094
 11
-6.012373
 21
37.995094
 40
0.937500
 41
0.45
 50
0.000000
 72
0
 73
0
 62
1
  1
SECTION "A-A"
  0
LINE
  8
BOPEN_End
 10
-32.893028
 20
37.378741
 11
-32.905528
 21
37.378741
 39
0.006944
 62
1
  0
LINE
  8
BOPEN_End
 10
-32.893028
 20
37.378741
 11
-32.905528
 21
37.378741
 39
0.006944
 62
1
  0
LINE
  8
BOPEN_End
 10
-32.893028
 20
37.378741
 11
-32.905528
 21
37.378741
 39
0.006944
 62
1
  0
LINE
  8
BOPEN_End
 10
-32.905528
 20
37.378741
 11
-32.905528
 21
36.903739
 39
0.006944
 62
1
  0
LINE
  8
BOPEN_End
 10
-32.905528
 20
37.378741
 11
-32.905528
 21
36.903739
 39
0.006944
 62
1
  0
LINE
  8
BOPEN_End
 10
-30.405527
 20
37.378741
 11
-32.893028
 21
37.378741
 39
0.006944
 62
1
  0
LINE
  8
BOPEN_End
 10
-30.405527
 20
37.378741
 11
-32.893028
 21
37.378741
 39
0.006944
 62
1
  0
LINE
  8
BOPEN_End
 10
-20.952402
 20
37.378741
 11
-30.405527
 21
37.378741
 39
0.006944
 62
1
  0
LINE
  8
BOPEN_End
 10
-32.893028
 20
18.316240
 11
-32.893028
 21
37.378741
 39
0.006944
 62
1
  0
LINE
  8
BOPEN_End
 10
-32.905528
 20
37.378741
 11
-32.905528
 21
18.316240
 39
0.006944
 62
1
  0
LINE
  8
BOPEN_End
 10
-32.893028
 20
37.378741
 11
-32.893028
 21
18.316240
 39
0.006944
 62
1
  0
LINE
  8
BOPEN_End
 10
-32.905528
 20
36.903739
 11
-32.905528
 21
18.791243
 39
0.006944
 62
1
  0
LINE
  8
BOPEN_End
 10
-18.452403
 20
37.378741
 11
-32.893028
 21
37.378741
 39
0.006944
 62
1
  0
LINE
  8
BOPEN_End
 10
-18.452403
 20
37.378741
 11
-20.952402
 21
37.378741
 39
0.006944
 62
1
  0
LINE
  8
BOPEN_End
 10
-18.452403
 20
37.378741
 11
-20.952402
 21
37.378741
 39
0.006944
 62
1
  0
LINE
  8
BOPEN_End
 10
-18.452403
 20
15.816243
 11
-18.452403
 21
37.378741
 39
0.006944
 62
1
  0
LINE
  8
BOPEN_End
 10
-32.905528
 20
18.791243
 11
-32.905528
 21
18.316240
 39
0.006944
 62
1
  0
LINE
  8
BOPEN_End
 10
-32.905528
 20
18.791243
 11
-32.905528
 21
18.316240
 39
0.006944
 62
1
  0
LINE
  8
BOPEN_End
 10
-32.905528
 20
18.316240
 11
-32.893028
 21
18.316240
 39
0.006944
 62
1
  0
LINE
  8
BOPEN_End
 10
-32.893028
 20
18.316240
 11
-31.577403
 21
18.316240
 39
0.006944
 62
1
  0
LINE
  8
BOPEN_End
 10
-31.577403
 20
18.316240
 11
-31.577403
 21
15.816243
 39
0.006944
 62
1
  0
LINE
  8
BOPEN_End
 10
-31.577403
 20
18.316240
 11
-31.577403
 21
15.816243
 39
0.006944
 62
1
  0
LINE
  8
BOPEN_End
 10
-31.577403
 20
18.316240
 11
-31.577403
 21
15.816243
 39
0.006944
 62
1
  0
LINE
  8
BOPEN_End
 10
-31.577403
 20
18.316240
 11
-31.577403
 21
15.816243
 39
0.006944
 62
1
  0
LINE
  8
BOPEN_End
 10
-31.577403
 20
18.316240
 11
-31.577403
 21
15.816243
 39
0.006944
 62
1
  0
LINE
  8
BOPEN_End
 10
-31.577403
 20
15.816243
 11
-18.452403
 21
15.816243
 39
0.006944
 62
1
  0
LINE
  8
BOPEN_End
 10
-36.655528
 20
15.816242
 11
-35.405528
 21
15.816242
 39
0.006944
 62
1
  0
LINE
  8
BOPEN_End
 10
-36.655528
 20
37.378741
 11
-35.405528
 21
37.378741
 39
0.006944
 62
1
  0
LINE
  8
BOPEN_End
 10
-36.030528
 20
15.816242
 11
-36.030528
 21
37.378741
 39
0.006944
 62
1
  0
LINE
  8
BOPEN_End
 10
-32.905528
 20
12.066242
 11
-32.905528
 21
13.316242
 39
0.006944
 62
1
  0
LINE
  8
BOPEN_End
 10
-18.452404
 20
12.066242
 11
-18.452404
 21
13.316242
 39
0.006944
 62
1
  0
LINE
  8
BOPEN_End
 10
-32.905528
 20
12.691242
 11
-18.452404
 21
12.691242
 39
0.006944
 62
1
  0
TEXT
  8
BOPEN_End
 10
-27.146688
 20
13.091183
 11
-27.146688
 21
13.091183
 40
0.937500
 41
0.45
 50
0.000000
 72
0
 73
0
 62
1
  1
DEPTH
  0
TEXT
  8
BOPEN_End
 10
-34.926456
 20
25.471889
 11
-34.926456
 21
25.471889
 40
0.937500
 41
0.45
 50
90.000000
 72
0
 73
0
 62
1
  1
HEIGHT
  0
LINE
  8
BOPEN_End
 10
-32.905528
 20
13.804638
 11
-32.905528
 21
17.691240
 39
0.006944
 62
1
  0
LINE
  8
BOPEN_End
 10
-31.577403
 20
13.804638
 11
-31.577403
 21
15.191243
 39
0.006944
 62
1
  0
LINE
  8
BOPEN_End
 10
-32.905528
 20
14.429638
 11
-31.577403
 21
14.429638
 39
0.006944
 62
1
  0
TEXT
  8
BOPEN_End
 10
-31.289984
 20
13.644594
 11
-31.289984
 21
13.644594
 40
1.250000
 41
0.45
 50
0.000000
 72
0
 73
1
 62
1
  1
2.125
  0
LINE
  8
BOPEN_End
 10
-35.467802
 20
15.816243
 11
-32.202403
 21
15.816243
 39
0.006944
 62
1
  0
LINE
  8
BOPEN_End
 10
-35.467802
 20
18.316240
 11
-33.530528
 21
18.316240
 39
0.006944
 62
1
  0
LINE
  8
BOPEN_End
 10
-34.842802
 20
15.816243
 11
-34.842802
 21
18.316240
 39
0.006944
 62
1
  0
TEXT
  8
BOPEN_End
 10
-34.057758
 20
18.738798
 11
-34.057758
 21
18.738798
 40
1.250000
 41
0.45
 50
90.000000
 72
0
 73
1
 62
1
  1
4.000
  0
LINE
  8
BOPEN_Front
 10
-58.508759
 20
37.251530
 11
-58.983759
 21
37.251530
 39
0.006944
 62
1
  0
LINE
  8
BOPEN_Front
 10
-58.508759
 20
37.251530
 11
-58.983759
 21
37.251530
 39
0.006944
 62
1
  0
LINE
  8
BOPEN_Front
 10
-58.508759
 20
37.251530
 11
-58.508759
 21
36.776529
 39
0.006944
 62
1
  0
LINE
  8
BOPEN_Front
 10
-58.508759
 20
36.776529
 11
-58.508759
 21
37.251530
 39
0.006944
 62
1
  0
LINE
  8
BOPEN_Front
 10
-48.208759
 20
37.251530
 11
-58.508759
 21
37.251530
 39
0.006944
 62
1
  0
LINE
  8
BOPEN_Front
 10
-48.208759
 20
37.251530
 11
-58.508759
 21
37.251530
 39
0.006944
 62
1
  0
LINE
  8
BOPEN_Front
 10
-48.208759
 20
37.251530
 11
-58.508759
 21
37.251530
 39
0.006944
 62
1
  0
LINE
  8
BOPEN_Front
 10
-58.508759
 20
36.776529
 11
-48.208759
 21
36.776529
 39
0.006944
 62
1
  0
LINE
  8
BOPEN_Front
 10
-58.983759
 20
37.251530
 11
-58.983759
 21
18.189029
 39
0.006944
 62
1
  0
LINE
  8
BOPEN_Front
 10
-58.983759
 20
37.251530
 11
-58.983759
 21
18.189029
 39
0.006944
 62
1
  0
LINE
  8
BOPEN_Front
 10
-58.508759
 20
18.664032
 11
-58.508759
 21
36.776529
 39
0.006944
 62
1
  0
LINE
  8
BOPEN_Front
 10
-58.410010
 20
26.816663
 11
-58.507511
 21
26.816663
 39
0.006944
 62
1
  0
LINE
  8
BOPEN_Front
 10
-58.410010
 20
26.816663
 11
-58.507511
 21
26.816663
 39
0.006944
 62
1
  0
LINE
  8
BOPEN_Front
 10
-58.410010
 20
26.351039
 11
-58.410010
 21
26.816663
 39
0.006944
 62
1
  0
LINE
  8
BOPEN_Front
 10
-47.733759
 20
37.251530
 11
-48.208759
 21
37.251530
 39
0.006944
 62
1
  0
LINE
  8
BOPEN_Front
 10
-47.733759
 20
37.251530
 11
-48.208759
 21
37.251530
 39
0.006944
 62
1
  0
LINE
  8
BOPEN_Front
 10
-48.208759
 20
36.776529
 11
-48.208759
 21
37.251530
 39
0.006944
 62
1
  0
LINE
  8
BOPEN_Front
 10
-48.208759
 20
37.251530
 11
-48.208759
 21
36.776529
 39
0.006944
 62
1
  0
LINE
  8
BOPEN_Front
 10
-48.208759
 20
36.776529
 11
-48.208759
 21
18.664032
 39
0.006944
 62
1
  0
LINE
  8
BOPEN_Front
 10
-48.208759
 20
36.776529
 11
-48.208759
 21
18.664032
 39
0.006944
 62
1
  0
LINE
  8
BOPEN_Front
 10
-47.733759
 20
18.189029
 11
-47.733759
 21
37.251530
 39
0.006944
 62
1
  0
LINE
  8
BOPEN_Front
 10
-48.210011
 20
26.816663
 11
-48.307510
 21
26.816663
 39
0.006944
 62
1
  0
LINE
  8
BOPEN_Front
 10
-48.210011
 20
26.816663
 11
-48.307510
 21
26.816663
 39
0.006944
 62
1
  0
LINE
  8
BOPEN_Front
 10
-48.307510
 20
26.816663
 11
-48.307510
 21
26.351039
 39
0.006944
 62
1
  0
LINE
  8
BOPEN_Front
 10
-48.307510
 20
26.816663
 11
-48.307510
 21
26.351039
 39
0.006944
 62
1
  0
LINE
  8
BOPEN_Front
 10
-58.410010
 20
26.351039
 11
-58.410010
 21
25.876039
 39
0.006944
 62
1
  0
LINE
  8
BOPEN_Front
 10
-58.507511
 20
26.816663
 11
-58.507511
 21
25.410413
 39
0.006944
 62
1
  0
LINE
  8
BOPEN_Front
 10
-58.410010
 20
25.876039
 11
-58.410010
 21
26.351039
 39
0.006944
 62
1
  0
LINE
  8
BOPEN_Front
 10
-58.507511
 20
26.816663
 11
-58.507511
 21
25.410413
 39
0.006944
 62
1
  0
LINE
  8
BOPEN_Front
 10
-58.410010
 20
26.351039
 11
-58.410010
 21
25.876039
 39
0.006944
 62
1
  0
LINE
  8
BOPEN_Front
 10
-58.410010
 20
25.410413
 11
-58.410010
 21
25.876039
 39
0.006944
 62
1
  0
LINE
  8
BOPEN_Front
 10
-58.507511
 20
25.410413
 11
-58.410010
 21
25.410413
 39
0.006944
 62
1
  0
LINE
  8
BOPEN_Front
 10
-48.307510
 20
26.351039
 11
-58.410010
 21
26.351039
 39
0.006944
 62
1
  0
LINE
  8
BOPEN_Front
 10
-48.307510
 20
26.351039
 11
-58.410010
 21
26.351039
 39
0.006944
 62
1
  0
LINE
  8
BOPEN_Front
 10
-58.410010
 20
25.876039
 11
-48.307510
 21
25.876039
 39
0.006944
 62
1
  0
LINE
  8
BOPEN_Front
 10
-58.508759
 20
18.664032
 11
-58.508759
 21
18.189029
 39
0.006944
 62
1
  0
LINE
  8
BOPEN_Front
 10
-58.508759
 20
18.189029
 11
-58.508759
 21
18.664032
 39
0.006944
 62
1
  0
LINE
  8
BOPEN_Front
 10
-58.983759
 20
18.189029
 11
-58.508759
 21
18.189029
 39
0.006944
 62
1
  0
LINE
  8
BOPEN_Front
 10
-58.983759
 20
18.189029
 11
-58.983759
 21
15.689032
 39
0.006944
 62
1
  0
LINE
  8
BOPEN_Front
 10
-58.508759
 20
18.189029
 11
-58.508759
 21
15.689032
 39
0.006944
 62
1
  0
LINE
  8
BOPEN_Front
 10
-58.508759
 20
15.689032
 11
-58.508759
 21
18.189029
 39
0.006944
 62
1
  0
LINE
  8
BOPEN_Front
 10
-48.208759
 20
18.664032
 11
-58.508759
 21
18.664032
 39
0.006944
 62
1
  0
LINE
  8
BOPEN_Front
 10
-48.208759
 20
18.664032
 11
-58.508759
 21
18.664032
 39
0.006944
 62
1
  0
LINE
  8
BOPEN_Front
 10
-58.508759
 20
18.189029
 11
-48.208759
 21
18.189029
 39
0.006944
 62
1
  0
LINE
  8
BOPEN_Front
 10
-58.983759
 20
15.689032
 11
-58.508759
 21
15.689032
 39
0.006944
 62
1
  0
LINE
  8
BOPEN_Front
 10
-58.508759
 20
15.689032
 11
-48.208759
 21
15.689032
 39
0.006944
 62
1
  0
LINE
  8
BOPEN_Front
 10
-48.307510
 20
25.876039
 11
-48.307510
 21
26.351039
 39
0.006944
 62
1
  0
LINE
  8
BOPEN_Front
 10
-48.210011
 20
25.410413
 11
-48.210011
 21
26.816663
 39
0.006944
 62
1
  0
LINE
  8
BOPEN_Front
 10
-48.307510
 20
25.876039
 11
-48.307510
 21
25.410413
 39
0.006944
 62
1
  0
LINE
  8
BOPEN_Front
 10
-48.307510
 20
25.876039
 11
-48.307510
 21
25.410413
 39
0.006944
 62
1
  0
LINE
  8
BOPEN_Front
 10
-48.307510
 20
25.410413
 11
-48.210011
 21
25.410413
 39
0.006944
 62
1
  0
LINE
  8
BOPEN_Front
 10
-48.208759
 20
18.189029
 11
-48.208759
 21
18.664032
 39
0.006944
 62
1
  0
LINE
  8
BOPEN_Front
 10
-48.208759
 20
18.664032
 11
-48.208759
 21
18.189029
 39
0.006944
 62
1
  0
LINE
  8
BOPEN_Front
 10
-48.208759
 20
18.189029
 11
-47.733759
 21
18.189029
 39
0.006944
 62
1
  0
LINE
  8
BOPEN_Front
 10
-48.208759
 20
15.689032
 11
-48.208759
 21
18.189029
 39
0.006944
 62
1
  0
LINE
  8
BOPEN_Front
 10
-48.208759
 20
18.189029
 11
-48.208759
 21
15.689032
 39
0.006944
 62
1
  0
LINE
  8
BOPEN_Front
 10
-47.733759
 20
15.689032
 11
-47.733759
 21
18.189029
 39
0.006944
 62
1
  0
LINE
  8
BOPEN_Front
 10
-48.208759
 20
15.689032
 11
-47.733759
 21
15.689032
 39
0.006944
 62
1
  0
LINE
  8
BOPEN_Front
 10
-62.733760
 20
15.689031
 11
-61.483760
 21
15.689031
 39
0.006944
 62
1
  0
LINE
  8
BOPEN_Front
 10
-62.733760
 20
37.251530
 11
-61.483760
 21
37.251530
 39
0.006944
 62
1
  0
LINE
  8
BOPEN_Front
 10
-62.108760
 20
15.689031
 11
-62.108760
 21
37.251530
 39
0.006944
 62
1
  0
LINE
  8
BOPEN_Front
 10
-58.983760
 20
11.939031
 11
-58.983760
 21
13.189031
 39
0.006944
 62
1
  0
LINE
  8
BOPEN_Front
 10
-47.733760
 20
11.939031
 11
-47.733760
 21
13.189031
 39
0.006944
 62
1
  0
LINE
  8
BOPEN_Front
 10
-58.983760
 20
12.564031
 11
-47.733760
 21
12.564031
 39
0.006944
 62
1
  0
TEXT
  8
BOPEN_Front
 10
-57.365764
 20
13.020222
 11
-57.365764
 21
13.020222
 40
0.937500
 41
0.45
 50
0.000000
 72
0
 73
0
 62
1
  1
WIDTH
  0
TEXT
  8
BOPEN_Front
 10
-61.043630
 20
24.089877
 11
-61.043630
 21
24.089877
 40
0.937500
 41
0.45
 50
90.000000
 72
0
 73
0
 62
1
  1
HEIGHT
  0
POLYLINE
  8
BOPEN_Front
 66
     1
 10
0.0
 20
0.0
 39
0.006944
 62
1
  0
VERTEX
  8
BOPEN_Front
 10
-49.613400
 20
38.188362
 62
1
  0
VERTEX
  8
BOPEN_Front
 10
-52.786460
 20
38.188362
 62
1
  0
SEQEND
  8
BOPEN_Front
  0
POLYLINE
  8
BOPEN_Front
 66
     1
 10
0.0
 20
0.0
 39
0.006944
 62
1
 70
     1
  0
VERTEX
  8
BOPEN_Front
 10
-51.848961
 20
38.000862
 62
1
  0
VERTEX
  8
BOPEN_Front
 10
-52.786460
 20
38.188362
 62
1
  0
VERTEX
  8
BOPEN_Front
 10
-51.848961
 20
38.375862
 62
1
  0
SEQEND
  8
BOPEN_Front
  0
POLYLINE
  8
BOPEN_Front
 66
     1
 10
0.0
 20
0.0
 39
0.006944
 62
1
  0
VERTEX
  8
BOPEN_Front
 10
-49.613400
 20
38.188362
 62
1
  0
VERTEX
  8
BOPEN_Front
 10
-49.613400
 20
14.426465
 62
1
  0
VERTEX
  8
BOPEN_Front
 10
-52.786460
 20
14.426465
 62
1
  0
SEQEND
  8
BOPEN_Front
  0
POLYLINE
  8
BOPEN_Front
 66
     1
 10
0.0
 20
0.0
 39
0.006944
 62
1
 70
     1
  0
VERTEX
  8
BOPEN_Front
 10
-51.848961
 20
14.238965
 62
1
  0
VERTEX
  8
BOPEN_Front
 10
-52.786460
 20
14.426465
 62
1
  0
VERTEX
  8
BOPEN_Front
 10
-51.848961
 20
14.613965
 62
1
  0
SEQEND
  8
BOPEN_Front
  0
TEXT
  8
BOPEN_Front
 10
-53.760013
 20
37.827787
 11
-53.760013
 21
37.827787
 40
0.937500
 41
0.45
 50
0.000000
 72
0
 73
0
 62
1
  1
A
  0
TEXT
  8
BOPEN_Front
 10
-53.976358
 20
14.101947
 11
-53.976358
 21
14.101947
 40
0.937500
 41
0.45
 50
0.000000
 72
0
 73
0
 62
1
  1
A
  0
TEXT
  8
Title
 10
-38.036055
 20
40.071429
 11
-38.036055
 21
40.071429
 40
1.440000
 41
0.45
 50
0.000000
 72
0
 73
0
 62
1
  1
TYPICAL INTEGRAL KICK CABINET
  0
TEXT
  8
Title
 10
-32.565987
 20
3.561905
 11
-32.565987
 21
3.561905
 40
1.440000
 41
0.45
 50
0.000000
 72
0
 73
0
 62
1
  1
TYPICAL SUB BASE CABINET
  0
POLYLINE
  8
Title
 66
     1
 10
0.0
 20
0.0
 39
0.003472
 62
1
 70
     1
  0
VERTEX
  8
Title
 10
33.329252
 20
17.555102
 62
1
  0
VERTEX
  8
Title
 10
33.329252
 20
0.636054
 62
1
  0
VERTEX
  8
Title
 10
54.768419
 20
0.636054
 62
1
  0
VERTEX
  8
Title
 10
54.768419
 20
17.555102
 62
1
  0
SEQEND
  8
Title
  0
TEXT
  8
Title
 10
44.048836
 20
16.355102
 11
44.048836
 21
16.355102
 40
1.200000
 41
0.45
 50
0.000000
 72
1
 73
1
 62
1
  1
TYPICAL SPECIFICATIONS:
  0
TEXT
  8
Title
 10
44.048836
 20
13.955102
 11
44.048836
 21
13.955102
 40
1.200000
 41
0.45
 50
0.000000
 72
1
 73
1
 62
1
  1
MIN WIDTH - 6"
  0
TEXT
  8
Title
 10
44.048836
 20
12.755102
 11
44.048836
 21
12.755102
 40
1.200000
 41
0.45
 50
0.000000
 72
1
 73
1
 62
1
  1
MAX WIDTH - 48"
  0
TEXT
  8
Title
 10
44.048836
 20
10.355102
 11
44.048836
 21
10.355102
 40
1.200000
 41
0.45
 50
0.000000
 72
1
 73
1
 62
1
  1
MIN HEIGHT - 16"
  0
TEXT
  8
Title
 10
44.048836
 20
9.155102
 11
44.048836
 21
9.155102
 40
1.200000
 41
0.45
 50
0.000000
 72
1
 73
1
 62
1
  1
MAX HEIGHT - 36"
  0
TEXT
  8
Title
 10
44.048836
 20
6.755102
 11
44.048836
 21
6.755102
 40
1.200000
 41
0.45
 50
0.000000
 72
1
 73
1
 62
1
  1
MIN DEPTH - 9"
  0
TEXT
  8
Title
 10
44.048836
 20
5.555102
 11
44.048836
 21
5.555102
 40
1.200000
 41
0.45
 50
0.000000
 72
1
 73
1
 62
1
  1
MAX DEPTH - 28.5"
  0
ENDSEC
  0
EOF
